Oops, an error
Loading. Please wait.

All These Things I Hate Revolve Around Me Bass Tab

version 3
version 3

Whole song

464 views 3 this week
no commentswrite comment
1 2 3 4 5
excellent!
x 3
add to favorites
launch autoscroll
font size
0
reset
guitar tuner
Autoscroll
slow
fast
+/-
esc
set tempo
stop
Help us to improve Ultimate-Guitar.com Take our survey!
×
Contributor
Difficulty
Tuning
AnduNeedle 6,417
intermediate
C G C F A D
-----------------------------------------------------------------------------
      All These Things I Hate (Revolve Around Me) - Bullet For My Valentine
-----------------------------------------------------------------------------
Tabbed by: Andu Needle
E-mail: sulfur_in_my_lungs@yahoo.com

Chorus:

F|-----------------------------------------------|
C|-----------------------------------------------|
G|-----------------------------------------------|
C|-6666-4444-222-11-222-44-----------------------|(x2)

Post chorus:

F|-----------------------------------------------|
C|-----------------------------------------------|
G|-----------------------------------------------|
C|-66-66-66-6\1----------------------------------|

Verse:

F|-----------------------------------------------|
C|-----------------------------------------------|
G|-----------------------------------------------|
C|-6-666--4-444--2-222--2-222--------------------|(x4)

Pre chorus:

F|-----------------------------------------------|
C|-----------------------------------------------|
G|-----------------------------------------------|
C|-44444444-4444-666666-444444-------------------|

F|-----------------------------------------------|
C|-----------------------------------------------|
G|-----------------------------------------------|
C|-22222222-2222-666666-444444-------------------|(x2)

F|-----------------------------------------------|
C|-----------------------------------------------|
G|-----------------------------------------------|
C|-6~--------------------------------------------|

Chorus 2 is the same as the first one!

Bridge:

F|-----------------------------------------------|
C|-----------------------------------------------|
G|-----------------------------------------------|
C|-66-66-66-66-2-4-------------------------------|(x2)

F|-----------------------------------------------|
C|-----------------------------------------------|
G|-----------------------------------------------|
C|-66-66-666666-6624-----------------------------|(x2)

F|-----------------------------------------------|
C|-----------------------------------------------|
G|-----------------------------------------------|
C|-6-6-6-6-6-6-----------------------------------|

Pre chorus:

F|-----------------------------------------------|
C|-----------------------------------------------|
G|-----------------------------------------------|
C|-2222~--444-666--------------------------------|(x4)

You end the pre chorus with 2~ and wait.

The last chorus:

F|-----------------------------------------------|
C|-----------------------------------------------|
G|-----------------------------------------------|
C|-1111111111------------------------------------|

F|-----------------------------------------------|
C|-----------------------------------------------|
G|-----------------------------------------------|
C|-6666666-4444444-------------------------------|

And after this, the chorus goes as usually.

Ending:

F|-----------------------------------------------|
C|-----------------------------------------------|
G|-----------------------------------------------|
C|-66-66-66-66-2-4-6-----------------------------|
comments
We did not receive enough feedback on this tab! Please rate:
print report bad tab
1 2 3 4 5
I want to post or [tab]
guest
You may want to rate the tab now too:
select rating
Please do not post tabs as comments. Select "correction" instead!