Oops, an error
Loading. Please wait.

All These Things I Hate Revolve Around Me Chords

version 3
version 3
2,768 views 3 this week
no commentswrite comment
1 2 3 4 5
please rate
add to favorites
launch autoscroll
font size
0
reset
transpose
0
reset
simplify chords
display chords
guitar tuner
Autoscroll
slow
fast
+/-
esc
set tempo
stop
Help us to improve Ultimate-Guitar.com Take our survey!
×
Author
Difficulty
novice
Tabbed by: Omer Edelstein

These are the chords:
F#   x91111xx    F#5   244xxx
E    x799xx      E5    022xxx
D    x577xx      C#5   x466xx
D-5  x567xx      
A    x121414xx


Verse
F#             E            D  D-5  D
    Once more I'll say goodbye to you,
F#                    A               D       D-5  D
    Things happen but we don't really know why
F#m                             E    D                            F#m
    If it's supposed to be like this why do most of us ignore the chance to miss?
A      D    D-5  D
    Oh yeah

Pre-Chorus
E                     F#m          E              D
    Torn apart at the seams and my dreams turn to tears,
                     F#m E
I'm not feeling this situation
D                   F#m       E                  D
    Run away try to find that safe place you can hide,
                       D-5 (One time)
It's the best place to be when your feeling like 

Chorus
F#5      E5
Me, (me) yeah, (yeah)
D5        C#5      D      E            F#5      E5
All these things I hate revolve around me, (me) yeah, (yeah)
D5        C#5  D      E
Just back up before I snap

Interlude
e|------------------------------|
B|------------------------------|
G|----4-4h6-----4-4h6-----4-4h6-|
D|-4-4-------4-4------4-4-------|
A|-4-4-------4-4------4-4-------|
E|-2-2-------2-2------2-2-------|

Verse
F#m      E                   D
    Once more you tell those lies to me
F#m                   E                   D                   D-5  D
    Why cant you just be straight up with honesty? (honesty...)
F#m                    E         
    When you say those things in my ear
D                                  F#m                      A
Why do you always tell me what you wanna hear? (wanna hear...)
   D
Oh yeah

Pre-Chorus
E                           F#m                E          D
    Wear your heart on your sleeve make things hard to believe
                     F#m E
I'm not feeling this situation
D                   F#m            E             D
    Run away try to find that safe place you can hide
                      D-5 (One time)          
It's the best place to be when your feeling like 

Chorus
F#5      E5
Me, (me) yeah, (yeah)
D5        C#5      D      E            F#5      E5
All these things I hate revolve around me, (me) yeah, (yeah)
D5        C#5  D      E               F#5  E5
Just back up before I snap and you'll see, me (me) 
D5        C#5      D      E            F#5      E5
All these things I hate revolve around me, (me) yeah, (yeah)
D5        C#5  D      E
Just back up before I snap

Bridge
e|---------------------------------------------|
B|---------------------------------------------|
G|----4-4h6-----4-4h6-----4-4h6----4-4h6--7--9-|
D|-4-4-------4-4------4-4-------4-4-------7--9-|
A|-4-4-------4-4------4-4-------4-4-------5--7-|
E|-2-2-------2-2------2-2-------2-2------------|    x2

e|------------------------------------------|
B|------------------------------------------|
G|----4-4h6-----4-4h6-------4-4h6------7--9-|
D|-4-4-------4-4------444444------4-4--7--9-|
A|-4-4-------4-4------444444------4-4--5--7-|
E|-2-2-------2-2------222222------2-2-------|    x2

F#5 (BEND)

Pre-Chorus
D                     E5           F#5            D
    Torn apart at the seams and my dreams turn to tears,
                     E5  F#5
I'm not feeling this situation
D                   E5        F#5                D 
    Run away try to find that safe place you can hide,
                       E5
It's the best place to be when your feeling like me

Chorus
F#5      E5
Me, (me) yeah, (yeah)
D         C#5      D      E            F#5      E5
All these things I hate revolve around me, (me) yeah, (yeah)
D         C#5  D      E               F#5(BEND)  E5
Just back up before I snap and you'll see,       me (me) 
D         C#5      D      E            F#5      E5
All these things I hate revolve around me, (me) yeah, (yeah)
D         C#5  D      E
Just back up before I snap

Outro
e|------------------------------------------------|
B|------------------------------------------------|
G|----4-4h6-----4-4h6-----4-4h6----4-4h6----------|
D|-4-4-------4-4------4-4-------4-4-------7-6-4---|
A|-4-4-------4-4------4-4-------4-4-------7-6-4---|
E|-2-2-------2-2------2-2-------2-2-------5-4-2---|
Suggest correction
Give kudos to tab author, rate the tab!
1 2 3 4 5
comments
print report bad tab
guest
You may want to rate the tab now too:
select rating
Wanna post a correction for this tab? Suggest correction