Oops, an error
Loading. Please wait.

All These Things I Hate Revolve Around Me Tab

version 3
version 3

Whole song

22,491 views 1 this week
7 commentsread comments
1 2 3 4 5
accurate
x 8
add to favorites
launch autoscroll
font size
0
reset
how to read this tab
guitar tuner
Autoscroll
slow
fast
+/-
esc
set tempo
stop
Help us to improve Ultimate-Guitar.com Take our survey!
×
Author
 Bullet for my valentine
 All these things i hate
 tabbed by  T.B.K.
 tunning: drop C

verse part 1 only one guitar acoustic
D --------------------------------------------------------------|
A --------------------------------------------------------------|
F -8-8-8-8-8-8-8--6-6-6-6-6-6-6--4-4-4-4-4-4-4--3-3-3-3-4-4-4---|
C -6-6-6-6-6-6-6--4-4-4-4-4-4-4--2-2-2-2-2-2-2--1-1-1-1-2-2-2---|
G -6-6-6-6-6-6-6--4-4-4-4-4-4-4--2-2-2-2-2-2-2--1-1-1-1-2-2-2---|
C -6-6-6-6-6-6-6--4-4-4-4-4-4-4--2-2-2-2-2-2-2--1-1-1-1-2-2-2---|

D --------------------------------------------------------------|
A --------------------------------------------------------------|
F -8-8-8-8-8-8-8--1111111111111--4-4-4-4-4-4-4--3-3-3-3-4-4-4---|
C -6-6-6-6-6-6-6--9-9-9-9-9-9-9--2-2-2-2-2-2-2--1-1-1-1-2-2-2---| 2x
G -6-6-6-6-6-6-6--9-9-9-9-9-9-9--2-2-2-2-2-2-2--1-1-1-1-2-2-2---|
C -6-6-6-6-6-6-6--9-9-9-9-9-9-9--2-2-2-2-2-2-2--1-1-1-1-2-2-2---|

verse part 2 only one guitar acoustic
D ----------------------------------------------------------------|
A ----------------------------------------------------------------|
F -6-6-6-6-6--8-8-8--6-6-6-6-6---4-4-4-4--4--4--2--8-8-8-11-11-11-|
C -4-4-4-4-4--6-6-6--4-4-4-4-4---2-2-2-2--2--2--2--6-6-6-9--9--9--|
G -4-4-4-4-4--6-6-6--4-4-4-4-4---2-2-2-2--2--2--2--6-6-6-9--9--9--|
C -4-4-4-4-4--6-6-6--4-4-4-4-4---2-2-2-2--2--2--2--6-6-6-9--9--9--|

D ------------------------------------------|
A ------------------------------------4-----|
F -4-4-4-4-4--8-8-8-6-6-6--4-4-4-4-4--3-----|
C -2-2-2-2-2--6-6-6-4-4-4--2-2-2-2-2--1-----|
G -2-2-2-2-2--6-6-6-4-4-4--2-2-2-2-2--1-----|
C -2-2-2-2-2--6-6-6-4-4-4--2-2-2-2-2--1-----|

chorus- both guitars heavy distorted
          gtr1
D ---------------------------------------------------------------------|
A ------------------------------7-7-7-7-7-7----------------------------|
F ---------8-8-8-8-8-8-------------------------------------------------|
C -6-6-6-6--------------4-4-4-4--------------2--2/1-1-1--2--2/1/4-4-4--| 2x
G -6-6-6-6--------------4-4-4-4--------------2--2/1-1-1--2--2/1/4-4-4--|
C -6-6-6-6--------------4-4-4-4--------------2--2/1-1-1--2--2/1/4-4-4--|
pm . . . .              . . . .

          gtr2
D ----------------------------------------------------------------------|
A ----------------------------------------------------------------------|
F -------------------------------6-6-6-6-6-6----------------------------|
C -6-6-6-6--9-9-9-9-9-9--4-4-4-4--------------2--2/1-1-1--2--2/1/4-4-4--| 2x
G -6-6-6-6---------------4-4-4-4--------------2--2/1-1-1--2--2/1/4-4-4--|
C -6-6-6-6---------------4-4-4-4--------------2--2/1-1-1--2--2/1/4-4-4--|
pm . . . .               . . . .

bridge 1
         gtr1                           gtr2
D --------------------------------|--------------------------------|
A --------------------------------|--------------------------------|
F -----6-6h8-----6-6h8-----6-6h8--|--------------------------------|
C -6-6-------6-6-------6-6--------|-6-6-8-8h9-6-6-8-8h9-6-6-8-8h9--|
G -6-6-------6-6-------6-6--------|-6-6-------6-6-------6-6--------|
C -6-6-------6-6-------6-6--------|-6-6-------6-6-------6-6--------|
pm . .       . .       . .

verse 2 - not really sure about that  - only 1 guitar - clean
D ------------------------------------------2--------------------------|
A -----------------------------7---------------------------------------|
F ----8-----9-----------6--------6------4-------4--------4---------4---|
C ------6-----9-6-----4---4--------4------2-------2----2-------2-----2-|
G ---------------------------------------------------------------------|
C -6------6--------4--------4--------2------2--------1-----1-2---2-----|

D -------------------------2--------------2----------2------------2----|
A ---------------------------------------------------------------------|
F ----8-----9---------4------4--------4-----4-----------------4------4-|
C ------6-----9-6---4----------4----2---------2---1----1----2---2------|
G ----------------2-----2----------------------------------------------|
C -6------6-----------------------2-----2-------1-------1-2------------|

D ------------------------------------------2-------------2---------2---|
A ----------7-------------------7---------------------------------------|
F ------8---------------6--------6------4-------4-------4-------------4-|
C ----6-------9-6-----4---4--------4------2-------2---2---------2-------|
G ----------------------------------------------------------------------|
C -6------6--------4--------4--------2------2-------1-------1-2---2-----|

D -------------------------2--------------2----------2------------2----|
A ----------7----------------------------------------------------------|
F ----8-----9---------4------4--------4-----4-----------------4-----4--|
C ------6-----9-6---4----------4----2---------2---1----1----2---2----2-|
G ----------------2-----2----------------------------------------------|
C -6------6-----------------------2-----2-------1-------1-2------------|

   gtr 2 kicks in with distortion
D ------------------------------------------------------------------|
A ------------------------------------------------------------------|
F -----------------------------------------------------------13/-11-|
C -----------------------------------------------------------13/-11-|
G -----------------------------------------------------------11/--9-|
C ------------------------------------------------------------------|

pre chorus 2 octaves - gtr1 - heavy distorted
D ---------------------------------------------------------------|
A ---------------------------------------------------------------|
F --6-6-6-6-6-6-6--8-8-8-8-6-6-6-6-4-4-4-4-4-4--8-8-8-8-6-6-6-6--|
C ---------------------------------------------------------------|
G --4-4-4-4-4-4-4--6-6-6-6-4-4-4-4-2-2-2-2-2-2--6-6-6-6-4-4-4-4--|
C ---------------------------------------------------------------|

D -------------------------------------------------------|
A -------------------------------------------------------|
F -4-4-4-4-4-4-4--8-8-8-8-6-6-6-6--4-4-4-4-4-4-4--3v^----|
C -------------------------------------------------------|
G -2-2-2-2-2-2-2--6-6-6-6-4-4-4-4--2-2-2-2-2-2-2--1v^----|
C -------------------------------------------------------|

      gtr2
D -------------------------------------------------------------------|
A -------------------------------------------------------------------|
F --6-6-6-6-6-6-6--8-8-8-8-6-6-6-6--4-4-4-4-4-4--8-8-8-8-11-11-11-11-|
C -------------------------------------------------------------------|
G --4-4-4-4-4-4-4--6-6-6-6-4-4-4-4--2-2-2-2-2-2--6-6-6-6-9--9--9--9--|
C -------------------------------------------------------------------|

D --------------------------------------------------------------|
A --------------------------------------------------------------|
F -9-9-9-9-9-9-9-9--11-11-11-8-8-8-8----9-9-9-9-9-9-9-9--8v^----|
C --------------------------------------------------------------|
G -7-7-7-7-7-7-7-7--9--9--9--6-6-6-6----7-7-7-7-7-7-7-7--6v^----|
C --------------------------------------------------------------|

chorus 4x

bridge 2 - both guitats heavy distorted
         gtr1
D ------------------------------------------------|
A ------------------------------------------------|
F -----6-6h8-----6-6h8-----6-6h8-----6-6h8--------|
C -6-6-------6-6-------6-6-------6-6-------2---4--| 2x
G -6-6-------6-6-------6-6-------6-6-------2---4--|
C -6-6-------6-6-------6-6-------6-6-------2---4--|
pm . .       . .       . .       . .
          gtr2
D ------------------------------------------------|
A ------------------------------------------------|
F ------------------------------------------------|
C -6-6-8-8h9-6-6-8-8h9-6-6-8-8h9-6-6-8-8h9-2---4--| 2x
G -6-6-------6-6-------6-6-------6-6-------2---4--|
C -6-6-------6-6-------6-6-------6-6-------2---4--|
pm . .       . .       . .       . .
          gtr1
D -------------------------------------------------------|
A -------------------------------------------------------|
F -----6-6h8-----6-6h8-------------6-6h8-----------------|
C -6-6-------6-6-------6-6-6-6-6-6-------6-6--2----4-----| 2x
G -6-6-------6-6-------6-6-6-6-6-6-------6-6--2----4-----|
C -6-6-------6-6-------6-6-6-6-6-6-------6-6--2----4-----|
pm . .       . .       . . . . . .       . .
          gtr2
D -------------------------------------------------------|
A -------------------------------------------------------|
F -------------------------------------------------------|
C -6-6-8-8h9-6-6-8-8h9-6-6-6-6-6-6-8-8h9-6-6--2----4-----| 2x
G -6-6-------6-6-------6-6-6-6-6-6-------6-6--2----4-----|
C -6-6-------6-6-------6-6-6-6-6-6-------6-6--2----4-----|
pm . .       . .       . . . . . .       . .

F --------------|
C --------------|
G -6^6^6^6^6^6^-
C -6^6^6^6^6^6^-

 both guitars
D ---------------------------------------------------------|
A ----------------------------------------2----------------|
F -----------4-3------------------------4---3--------------|
C -2-2--2-2-----4-4-4-4-6-6-6--2-2--2-2-------6-6-6-9-9-9--|
G -2-2--2-2-------4-4-4-6-6-6--2-2--2-2-------6-6-6-9-9-9--|
C -2-2--2-2-------4-4-4-6-6-6--2-2--2-2-------6-6-6-9-9-9--|
pm . .  . .                    . .  . .
   gtr1 - fast strumming
D ----------------------------------|
A ----------------------------------|
F -4~-------------------------------|
C -2~-------1-1-1-1-1-1-1-1-1-1-1-1-|
G -2~-------1-1-1-1-1-1-1-1-1-1-1-1-|
C -2~-------1-1-1-1-1-1-1-1-1-1-1-1-|
pm          . . . . . . . . . . . .
   gtr2
  |         clean tone                  |   heavy distortion     |
D -----7-----7-----7-----7-----7-----7---------------------------|
A ---7-----7-----7-----7-----7-----7-----------------------------|
F -9-----9-----9-----9-----9-----9-------------------------------|
C ---------------------------------------1-1-1-1-1-1-1-1-1-1-1-1-|
G ---------------------------------------1-1-1-1-1-1-1-1-1-1-1-1-|
C ---------------------------------------1-1-1-1-1-1-1-1-1-1-1-1-|
pm                                       . . . . . . . . . . . .

chorus with variation
D -------------------------------------------------------|
A -------------------------------------------------------|
F -------------------------------------------------------|
C -6-6-6-6-6-6----4-4-4-4-4-4---2--2/1-1-1--2--2/1/4-4-4-|
G -6-6-6-6-6-6----4-4-4-4-4-4---2--2/1-1-1--2--2/1/4-4-4-|
C -6-6-6-6-6-6----4-4-4-4-4-4---2--2/1-1-1--2--2/1/4-4-4-|
pm . . . . . .    . . . . . .

   normal chorus

   and another varation of chorus
D ------------------------------------|
A ------------------------------------|
F -------------------rest of chorus---|
C -6-6-6-6-6-6------------------------|
G -6-6-6-6-6-6------------------------|
C -6-6-6-6-6-6--8^--------------------|

   then another normal chorus

ending
         gtr1
D ---------------------------------------------------|
A ---------------------------------------------------|
F -----6-6h8-----6-6h8-----6-6h8-----6-6h8--8--6-----|
C -6-6-------6-6-------6-6-------6-6--------------9/-|
G -6-6-------6-6-------6-6-------6-6-----------------|
C -6-6-------6-6-------6-6-------6-6-----------------|
pm . .       . .       . .       . .

         gtr2
D ----------------------------------------------------|
A ----------------------------------------------------|
F ----------------------------------------------------|
C -6-6-8-8h9-6-6-8-8h9-6-6-8-8h9-6-6-8-8h9--9--8--6/--|
G -6-6-------6-6-------6-6-------6-6------------------|
C -6-6-------6-6-------6-6-------6-6------------------|

That's all. tibor81@post.sk
P.S.: Bratislava rules!!! And Slovakia too!!!
Suggest correction
What's this?
You can suggest a correction to this tab. Community and Mods will review your correction and vote to approve or reject it.
comments
print report bad tab
7 comments total. Showing first comments.
0 reply
ahhmust 38 wrote on August 11 2006, 05:17 am

not bad effort!!! 4stars!!! maybe you could put the timing and stummin pattens for the acoustic bit!!!

0 reply
Hardcore_lvr 48 wrote on May 2 2007, 01:04 pm

really nice dude. A lot better than the others.

0 reply
vash7 42 wrote on May 17 2007, 05:15 pm

GREAT!!!!!

guest
You may want to rate the tab now too:
select rating
Please do not post tabs as comments. Select "correction" instead!