Oops, an error
Loading. Please wait.

All These Things I Hate Chords

version 2
version 2

Whole song

4,387 views 1 this week
no commentswrite comment
1 2 3 4 5
not so good
x 1
add to favorites
launch autoscroll
font size
0
reset
transpose
0
reset
- display chords -
guitar tuner
Tab Pro tools
  • play this tab
  • loop segment
  • change instrument
  • show fretboard
  • metronome
Autoscroll
slow
fast
+/-
esc
set tempo
stop
Contributor
Difficulty
Tuning
novice
D A D G B E
It is not 100% correct, but one can play it with the recording of the song.

Tuning: DADGBE
If you want, tuning would be 1 semitone flatter. D flat, A flat, D flat, etc. It makes
the chorus easier to play. If played down a semitone, play all chords down 1 fret, so
instead of 11 play 10
                                      11      10
                                       9       8
Verse
|-------------------------------------------------------|
|-------------------------------------------------------|
|-11-11-11-11-11-11-9-9-9-9-9-9-7-7-7-7-7-7-7-6-6-6-6-7-|  Slide down and
|-11-11-11-11-11-11-9-9-9-9-9-9-7-7-7-7-7-7-7-6-6-6-6-7-|  up to the 6's
|-9--9--9--9--9--9--7-7-7-7-7-7-5-5-5-5-5-5-5-5-5-5-5-5-|
|-------------------------------------------------------|

|-------------------------------------------------------------|
|-------------------------------------------------------------|
|-11-11-11-11-11-11-14-14-14-14-14-14-7-7-7-7-7-7-7-6-6-6-6-7-|
|-11-11-11-11-11-11-14-14-14-14-14-14-7-7-7-7-7-7-7-6-6-6-6-7-|
|-9--9--9--9--9--9--12-12-12-12-12-12-5-5-5-5-5-5-5-5-5-5-5-5-|
|-------------------------------------------------------------|

Repeat first two parts

Pre-chorus
|-------------------------------------------------------|
|-------------------------------------------------------|
|-9-9-9-9-9-9-11-11-11-9-9-9-7-7-7-7-7-7-11-11-11-9-9-9-|
|-9-9-9-9-9-9-11-11-11-9-9-9-7-7-7-7-7-7-11-11-11-9-9-9-|
|-7-7-7-7-7-7-9--9--9--9-9-9-5-5-5-5-5-5-9--9--9--7-7-7-|
|-------------------------------------------------------|

|-------------------------------------------|
|-------------------------------------------|
|-7-7-7-7-7-7-11-11-11-9-9-9-7-7-7-7-7-7-6--|
|-7-7-7-7-7-7-11-11-11-9-9-9-7-7-7-7-7-7-6--|
|-5-5-5-5-5-5-9--9--9--7-7-7-5-5-5-5-5-5-4--|
|-------------------------------------------|

Chorus

|------------------------------------------------------|
|------------------------------------------------------|
|------------------------------------------------------|
|-4-4-4-4-4-4-4--2-2-2-2-2-2--0-0-0-0-0--0-0-0-0-2-2-2-|  x2
|-4-4-4-4-4-4-4--2-2-2-2-2-2--0-0-0-0-11-0-0-0-0-2-2-2-|
|-4-4-4-4-4-4-4--2-2-2-2-2-2--0-0-0-0-0--0-0-0-0-2-2-2-|

|------------|
|------------|
|-----9-9-11-|
|-4-4--------| x3
|-4-4--------|
|-4-4--------|

Verse (I am not sure about the broken chords. I think bass plays these chords, this part 
is optional)
|-------------------------------------------------------|
|-------------------------------------------------------|
|-11-11-11-11-11-11-9-9-9-9-9-9-7-7-7-7-7-7-7-6-6-6-6-7-|  Slide down and
|-11-11-11-11-11-11-9-9-9-9-9-9-7-7-7-7-7-7-7-6-6-6-6-7-|  up to the 6's
|-9--9--9--9--9--9--7-7-7-7-7-7-5-5-5-5-5-5-5-5-5-5-5-5-|
|-------------------------------------------------------|

|-------------------------------------------------------------|
|-------------------------------------------------------------|
|-11-11-11-11-11-11-14-14-14-14-14-14-7-7-7-7-7-7-7-6-6-6-6-7-|
|-11-11-11-11-11-11-14-14-14-14-14-14-7-7-7-7-7-7-7-6-6-6-6-7-|
|-9--9--9--9--9--9--12-12-12-12-12-12-5-5-5-5-5-5-5-5-5-5-5-5-|
|-------------------------------------------------------------|

Repeat first two parts

Pre-chorus (play with distortion and play one of the notes, either 7 or a 9. Up to you.)
|-------------------------------------------------------|
|-------------------------------------------------------|
|-9-9-9-9-9-9-11-11-11-9-9-9-7-7-7-7-7-7-11-11-11-9-9-9-|
|-9-9-9-9-9-9-11-11-11-9-9-9-7-7-7-7-7-7-11-11-11-9-9-9-|
|-7-7-7-7-7-7-9--9--9--9-9-9-5-5-5-5-5-5-9--9--9--7-7-7-|
|-------------------------------------------------------|

|-------------------------------------------|
|-------------------------------------------|
|-7-7-7-7-7-7-11-11-11-9-9-9-7-7-7-7-7-7-6--|
|-7-7-7-7-7-7-11-11-11-9-9-9-7-7-7-7-7-7-6--|
|-5-5-5-5-5-5-9--9--9--7-7-7-5-5-5-5-5-5-4--|
|-------------------------------------------|

Chorus

|----------------------------------------------------------|
|----------------------------------------------------------|
|---------------11-------------9---------------------------|
|-4-4-4-4-4-4-4----2-2-2-2-2-2---0-0-0-0-0--0-0-0-0-2-2-2--|  x2
|-4-4-4-4-4-4-4----2-2-2-2-2-2---0-0-0-0-11-0-0-0-0-2-2-2--|
|-4-4-4-4-4-4-4----2-2-2-2-2-2---0-0-0-0-0--0-0-0-0-2-2-2--|

|------------|            |-----|
|------------|            |-----|
|-----9-9-11-|            |-----|
|-4-4--------| x4 Then... |-0-2-| Then repeat first part 4 times
|-4-4--------|            |-0-2-|
|-4-4--------|            |-0-2-|

Repeat entire section twice. Last part is...

|--------------------|
|--------------------|
|--------------------|
|-0-2-4h5h45h4h5h4h5-|
|-0-2-4h5h45h4h5h4h5-|
|-0-2-4h5h45h4h5h4h5-|

Pre-chorus

|----------------------------|                 |----------------|
|----------------------------|                 |----------------|
|-7-7-7-7-7-7-9-9-9-11-11-11-|                 |----------------|
|-7-7-7-7-7-7-9-9-9-11-11-11-| x5 then... play |-7----6-6-6-6-7-|
|-5-5-5-5-5-5-7-7-7-9--9--9--|                 |-7----6-6-6-6-7-|
|----------------------------|                 |-5----4-4-4-4-5-|

Chorus

|----------------------------------------------------------|
|----------------------------------------------------------|
|---------------11-------------9---------------------------|
|-4-4-4-4-4-4-4----2-2-2-2-2-2---0-0-0-0-0--0-0-0-0-2-2-2--|  x4
|-4-4-4-4-4-4-4----2-2-2-2-2-2---0-0-0-0-11-0-0-0-0-2-2-2--|
|-4-4-4-4-4-4-4----2-2-2-2-2-2---0-0-0-0-0--0-0-0-0-2-2-2--|


|------------|            |-------------------------------------------|
|------------|            |-------------------------------------------|
|-----9-9-11-|            |-------|      (on the g-string) |-11-9-7---|
|-4-4--------| x4 Then... |-4-2-0-------------------------------------|  OR
|-4-4--------|            |-4-2-0-------------------------------------|
|-4-4--------|            |-4-2-0-------------------------------------|
comments
We did not receive enough feedback on this tab! Please rate:
print report bad tab
1 2 3 4 5
I want to post or [tab]
guest
You may want to rate the tab now too:
select rating
Please do not post tabs as comments. Select "correction" instead!