Oops, an error
Loading. Please wait.

Alone Bass Tab

version 1
version 1

Whole song

Interactive

9,726 views 15 this week
4 commentsread comments
1 2 3 4 5
excellent!
x 5
add to favorites
launch autoscroll
font size
0
reset
guitar tuner
Tab Pro tools
  • play this tab
  • loop segment
  • change instrument
  • show fretboard
  • metronome
×
Best way to learn
"Alone"
Autoscroll
slow
fast
+/-
esc
set tempo
stop
Contributor
Difficulty
Tuning
intermediate
C G C F A D
-------------------------------------------------------------------------------
	  	      Alone - Bullet for my Valentine
-------------------------------------------------------------------------------

Tabbed By : Kergash
e-mail: h_bjerkg@live.no

Tuning: Drop C

Intro Part 1:
F|---------------------------------------------------------------------------|
C|---------------------------------------------------------------------------|
G|3r---0r-------------3r---0r-------------3r---0r-------------3r---0r--------|
C|-----------2r---5r------------2r---5r-------------2r---5r-------------2r---|

Intro Part 2:
F|--------------------|-------------------------------------|----------------|
C|-Only the 1st time--|-------------------------------------|Ending last time|
G|--------------------|-------------------------------------|----------------|
C|22-22-222222-12\0---|-222222222222220h2-22222222-57504045-|-2---0/12\0-----|x4

Verse 1:
F|-------------------------------------------------------------------------------|
C|-------------------------------------------------------------------------------|
G|--------------------------------------------------------------33333333-55555555|
C|222222222222220h2-22222222-57504045-222222222222220h2-22222222-----------------|x2

Pre-Chorus:
F|---------------------------------------------------------------------------|
C|---------------------------------------------------------------------------|
G|333333333-333333-000000000-000000------------------------------------------|
C|----------------------------------222222222-222222-55555555-555555---------|

F|---------------------------------------------------------------------------|
C|---------------------------------------------------------------------------|
G|333333333-333333-000000000-000000------------------------------------------|
C|----------------------------------222222222-222222-5-5-5\0-----------------|

Chorus:
F|---------------------------------------------------------------------------|
C|---------------------------------------------------------------------------|
G|----------------------------------------------------------------33-333-333-|
C|22-222-222-222-222-222-222-0000-22-222-222-222-222-222-222-0000------------|

F|---------------------------------------------------------------------------|
C|---------------------------------------------------------------------------|
G|333-333-333-333-3333-------------------------------------------------------|
C|---------------------00-000-000-000-00-0000-0000-12\0----------------------|

Verse 2:
F|--------------------|------------------------------------------------------|
C|-Only the 1st time--|------------------------------------------------------|
G|--------------------|------------------------------------------------------|
C|22-22-222222-12\0---|-222222222222220h2-22222222-57504045------------------|

F|---------------------------------------------------------------------------|
C|---------------------------------------------------------------------------|
G|---------------------------33333333-55555555-------------------------------|
C|222222222222220h2-22222222-------------------------------------------------|x2

Pre-Chorus:
F|---------------------------------------------------------------------------|
C|---------------------------------------------------------------------------|
G|333333333-333333-000000000-000000------------------------------------------|
C|----------------------------------222222222-222222-55555555-555555---------|

F|---------------------------------------------------------------------------|
C|---------------------------------------------------------------------------|
G|333333333-333333-000000000-000000------------------------------------------|
C|----------------------------------222222222-222222-5-5-5\0-----------------|

Chorus:
F|---------------------------------------------------------------------------|
C|---------------------------------------------------------------------------|
G|----------------------------------------------------------------33-333-333-|
C|22-222-222-222-222-222-222-0000-22-222-222-222-222-222-222-0000------------|

F|---------------------------------------------------------------------------|
C|---------------------------------------------------------------------------|
G|333-333-333-333-3333-------------------------------------------------------|
C|---------------------00-000-000-000-00-0000-0000-12\0----------------------|x2

Solo 1/Bridge:
F|---------------------------------------------------------------------------|
C|---------------------------------------------------------------------------|
G|---------------------------------------------------------------------------|
C|44-444-444-444-444-444-444-42222-44-444-444-444-444-444-444-42222-00-000---|

F|---------------------------------------------------------------------------|
C|---------------------------------------------------------------------------|
G|---------------------------------------------------------------------------|
C|000-000-000-000-000-02222-00-000-000-000-000-000-000-02222-----------------|x2

Solo 2:
F|---------------------------------------------------------------------------|
C|---------------------------------------------------------------------------|
G|---------------------------------------------------------------5r--7r------|
C|444444444444440h4-44444444-79706067-444444444444440h4-44444444-------------|x

Pre-Chorus:
F|---------------------------------------------------------------------------|
C|---------------------------------------------------------------------------|
G|333333333-333333-000000000-000000------------------------------------------|
C|----------------------------------222222222-222222-55555555-555555---------|

F|---------------------------------------------------------------------------|
C|---------------------------------------------------------------------------|
G|333333333-333333-000000000-000000------------------------------------------|
C|----------------------------------222222222-222222-5-5-5\0-----------------|

Chorus:
F|---------------------------------------------------------------------------|
C|---------------------------------------------------------------------------|
G|----------------------------------------------------------------33-333-333-|
C|22-222-222-222-222-222-222-0000-22-222-222-222-222-222-222-0000------------|

F|---------------------------------------------------------------------------|
C|---------------------------------------------------------------------------|
G|333-333-333-333-3333-------------------------------------------------------|
C|---------------------00-000-000-000-00-0000-0000-12\0----------------------|x2

Verse-riff:
F|------------------------------------------------------|
C|------------------------------------------------------|
G|------------------------------------------------------|
C|-222222222222220h2-22222222-57504045------------------|

F|---------------------------------------------------------------------------|
C|---------------------------------------------------------------------------|
G|---------------------------33333333-55555555-------------------------------|
C|222222222222220h2-22222222-------------------------------------------------|x2

Ending:
F|---------------------------------------------------------------------------|
C|---------------------------------------------------------------------------|
G|3r--0r------------3r---0r-------------3r---0r------------3r---0r-----------|
C|---------2r---5r-----------2r----5r------------2r---5r-----------2r---5r---|

F|---------------------------------------------------------------------------|
C|---------------------------------------------------------------------------|
G|3r---------0r--------------------------------------------------------------|
C|---------------------2r----------------------------------------------------|


| r  let ring
| /  slide up
| \  slide down
| h  hammer-on
| p  pull-off
| ~  vibrato
| +  harmonic
| x  Mute note
===============================================================================
comments
print report bad tab
4 comments total. Showing first comments.
0 reply
iamghost wrote on May 3 2010, 09:05 am

i don't play bass, but I know this is accurate :) good job!

0 reply
outcast357 wrote on December 24 2010, 01:23 pm

well, i do play bass, and ghost is rite. its a good tab

+1 reply
guillotine72 wrote on January 6 2013, 08:04 pm

Good tab but I'm screwed when it comes to the 57504045 and the 79706067 (same thing only 2 frets higher). I'll work on it and try but still, sweet tab

I want to post or [tab]
guest
You may want to rate the tab now too:
select rating
Please do not post tabs as comments. Select "correction" instead!