Oops, an error
Loading. Please wait.

Alone Tab

version 1
version 1

Solo

Whole song

Interactive

4,192 views 6 this week
no commentswrite comment
1 2 3 4 5
x 3
add to favorites
launch autoscroll
font size
0
reset
how to read this tab
guitar tuner
Autoscroll
slow
fast
+/-
esc
set tempo
stop
Help us to improve Ultimate-Guitar.com Take our survey!
×
Author
Difficulty
Tuning
intermediate
C G C F A D
Alone By Bullet For My valentine

Turning : D,A,F,C,G,C
Matt Tuck


              T                 T                 T   
     S  S  S  S  S  S  S  S  S  S  S  S  S  S  S  S   
--------------------------------------------------|
--0h-5h-8-13p-8p-5p-0h-5h-8-13p-8p-5p-0h-5h-8-13h-|
--------------------------------------------------|
--------------------------------------------------|
--------------------------------------------------|
--------------------------------------------------|


                 T                 T               
  S  S  S  S  S  S  S  S  S  S  S  S  S  S  S  S   
--------------------------------------------------|
--8p-5p-0h-5h-8-13p-8p-5p-0h-5h-8-10p-8p-5p-0h-5h-|
--------------------------------------------------|
--------------------------------------------------|
--------------------------------------------------|
--------------------------------------------------|


     T                 T                 T         
  S  S  S  S  S  S  S  S  S  S  S  S  S  S  S  S   
--------------------------------------------------|
--8-10p-8p-5p-0h-5h-8-10p-8p-5p-0h-5h-8-10p-8p-5h-|
--------------------------------------------------|
--------------------------------------------------|
--------------------------------------------------|
--------------------------------------------------|


           T                 T                 T   
  S  S  S  S  S  S  S  S  S  S  S  S  S  S  S  S   
--------------------------------------------------|
--0h-5h-8-12p-8p-5p-0h-5h-8-12p-8p-5p-0h-5h-8-12h-|
--------------------------------------------------|
--------------------------------------------------|
--------------------------------------------------|
--------------------------------------------------|


                 T                 T               
  S  S  S  S  S  S  S  S  S  S  S  S  S  S  S  S   
--------------------------------------------------|
--8p-5p-0h-5h-8-12p-8p-5p-0h-5h-8-10p-8p-5p-0h-5h-|
--------------------------------------------------|
--------------------------------------------------|
--------------------------------------------------|
--------------------------------------------------|


     T                 T                 T         
  S  S  S  S  S  S  S  S  S  S  S  S  S  S  S  S   
--------------------------------------------------|
--8-10p-8p-5p-0h-5h-8-10p-8p-5p-0h-5h-8-10p-8p-5h-|
--------------------------------------------------|
--------------------------------------------------|
--------------------------------------------------|
--------------------------------------------------|


           T                 T                 T   
  S  S  S  S  S  S  S  S  S  S  S  S  S  S  S  S   
--------------------------------------------------|
--0h-5h-8-13p-8p-5p-0h-5h-8-13p-8p-5p-0h-5h-8-13h-|
--------------------------------------------------|
--------------------------------------------------|
--------------------------------------------------|
--------------------------------------------------|


                 T                 T               
  S  S  S  S  S  S  S  S  S  S  S  S  S  S  S  S   
--------------------------------------------------|
--8p-5p-0h-5h-8-13p-8p-5p-0h-5h-8-10p-8p-5p-0h-5h-|
--------------------------------------------------|
--------------------------------------------------|
--------------------------------------------------|
--------------------------------------------------|


     T                 T                 T         
  S  S  S  S  S  S  S  S  S  S  S  S  S  S  S  S   
--------------------------------------------------|
--8-10p-8p-5p-0h-5h-8-10p-8p-5p-0h-5h-8-10p-8p-5h-|
--------------------------------------------------|
--------------------------------------------------|
--------------------------------------------------|
--------------------------------------------------|


           T                 T                 T   
  S  S  S  S  S  S  S  S  S  S  S  S  S  S  S  S   
--------------------------------------------------|
--0h-5h-8-12p-8p-5p-0h-5h-8-12p-8p-5p-0h-5h-8-12h-|
--------------------------------------------------|
--------------------------------------------------|
--------------------------------------------------|
--------------------------------------------------|


                 T                 T               
  S  S  S  S  S  S  S  S  S  S  S  S  S  S  S  S   
--------------------------------------------------|
--8p-5p-0h-5h-8-12p-8p-5p-0h-5h-8-10p-8p-5p-0h-5h-|
--------------------------------------------------|
--------------------------------------------------|
--------------------------------------------------|
--------------------------------------------------|


     T                 T                 T         
  S  S  S  S  S  S  S  S  S  S  S  S  S  S  S  S   
--------------------------------------------------|
--8-10p-8p-5p-0h-5h-8-10p-8p-5p-0h-5h-8-10p-8p-5h-|
--------------------------------------------------|
--------------------------------------------------|
--------------------------------------------------|
--------------------------------------------------|


           T                 T                 T   
  S  S  S  S  S  S  S  S  S  S  S  S  S  S  S  S   
--------------------------------------------------|
--0h-5h-8-13p-8p-5p-0h-5h-8-13p-8p-5p-0h-5h-8-13h-|
--------------------------------------------------|
--------------------------------------------------|
--------------------------------------------------|
--------------------------------------------------|


                 T                 T              
  S  S  S  S  S  S  S  S  S  S  S  S  S  S  S  S  
-------------------------------------------------|
--8p-5p-0h-5h-8-13p-8p-5p-0h-5h-8-10p-8p-5p-0h-5-|
-------------------------------------------------|
-------------------------------------------------|
-------------------------------------------------|
-------------------------------------------------|


     T                 T                 T         
  S  S  S  S  S  S  S  S  S  S  S  S  S  S  S  S   
--------------------------------------------------|
--8-10p-8p-5p-0h-5h-8-10p-8p-5p-0h-5h-8-10p-8p-5h-|
--------------------------------------------------|
--------------------------------------------------|
--------------------------------------------------|
--------------------------------------------------|


           T                 T                 T   
  S  S  S  S  S  S  S  S  S  S  S  S  S  S  S  S   
--------------------------------------------------|
--0h-5h-8-12p-8p-5p-0h-5h-8-12p-8p-5p-0h-5h-8-12h-|
--------------------------------------------------|
--------------------------------------------------|
--------------------------------------------------|
--------------------------------------------------|


  S  S  S  S  S  S  S  S  S  S  S  S  S  S  S  S   
--------------------------------------------------|
--8p-5p-0h-5h-8-12p-8p-5p-0h-5h-8-10p-8p-5p-0h-5h-|
--------------------------------------------------|
--------------------------------------------------|
--------------------------------------------------|
--------------------------------------------------|


  S  S  S  S  S  S  S  S  S  S  S  S  S  S  S  S   
--------------------------------------------------|
--8-10p-8p-5p-0h-5h-8-10p-8p-5p-0h-5h-8-10p-8p-5h-|
--------------------------------------------------|
--------------------------------------------------|
--------------------------------------------------|
--------------------------------------------------|


           T                 T                 T   
  S  S  S  S  S  S  S  S  S  S  S  S  S  S  S  S   
--------------------------------------------------|
--0h-5h-8-13p-8p-5p-0h-5h-8-13p-8p-5p-0h-5h-8-13h-|
--------------------------------------------------|
--------------------------------------------------|
--------------------------------------------------|
--------------------------------------------------|


                 T                 T              
  S  S  S  S  S  S  S  S  S  S  S  S  S  S  S  S  
-------------------------------------------------|
--8p-5p-0h-5h-8-13p-8p-5p-0h-5h-8-10p-8p-5p-0h-5-|
-------------------------------------------------|
-------------------------------------------------|
-------------------------------------------------|
-------------------------------------------------|


     T                 T                 T                                      
  S  S  S  S  S  S  S  S  S  S  S  S  S  S  S  S     S  S  S  S Q    Q    Q     
--------------------------------------------------|----------------------------|
--8-10p-8p-5p-0h-5h-8-10p-8p-5p-0h-5h-8-10p-8p-5h-|--0h-5h-8p-5-L----L----L----|
--------------------------------------------------|----------------------------|
--------------------------------------------------|----------------------------|
--------------------------------------------------|----------------------------|
--------------------------------------------------|----------------------------|


  W                   W                   W                   W                 
-------------------|-------------------|-------------------|-------------------|
--L----------------|--L----------------|--L----------------|--L----------------|
-------------------|-------------------|-------------------|-------------------|
-------------------|-------------------|-------------------|-------------------|
-------------------|-------------------|-------------------|-------------------|
-------------------|-------------------|-------------------|-------------------|


  W                   W                   W                                     
-------------------|-------------------|-------------------|-------------------|
--L----------------|--L----------------|--L----------------|-------------------|
-------------------|-------------------|-------------------|-------------------|
-------------------|-------------------|-------------------|-------------------|
-------------------|-------------------|-------------------|-------------------|
-------------------|-------------------|-------------------|-------------------|




  PM PM  PM PM PM  PM PM  PM  PM PM PM  PM  
  |---3--|  |---3--|  |---3---|  |---3--|   
  E  E   E  E  E   E  E   E   E  E  E   E   
-------------------------------------------|
-------------------------------------------|
---------------------------------7--9--11--|
------------7--9--11--9--11--12------------|
--7--9--11---------------------------------|
-------------------------------------------|


  PM PM  PM                                                              
  |---3--|  |---3---|  |---3---|                                         
  E  E   E  E   E   E  E   E   E   S  S  S  S    Q    E  Q    S S  Q     
-----------------------9--10--12--14-16-17-16-|--L----L--L----L---17----|
------------9--10--12-------------------------|-------------------------|
--7--9--11------------------------------------|-------------------------|
----------------------------------------------|-------------------------|
----------------------------------------------|-------------------------|
----------------------------------------------|-------------------------|


  W                    H           Q     S  S  S  S     S  E  H        Q    S  
--L----------------|--19brb--------L-----L--L-19-17-|--19--L--L--------L----L-|
-------------------|--------------------------------|-------------------------|
-------------------|--------------------------------|-------------------------|
-------------------|--------------------------------|-------------------------|
-------------------|--------------------------------|-------------------------|
-------------------|--------------------------------|-------------------------|


            T            T            T            T   
   |----3---|   |----3---|   |----3---|   |----3---|   
   E    E   E   E    E   E   E    E   E   E    E   E   
--14h--17--21--14h--17--21--14h--17--21--14h--17--21--|
------------------------------------------------------|
------------------------------------------------------|
------------------------------------------------------|
------------------------------------------------------|
------------------------------------------------------|


            T            T            T            T   
   |----3---|   |----3---|   |----3---|   |----3---|   
   E    E   E   E    E   E   E    E   E   E    E   E   
--12h--16--19--12h--16--19--12h--16--19--12h--16--19--|
------------------------------------------------------|
------------------------------------------------------|
------------------------------------------------------|
------------------------------------------------------|
------------------------------------------------------|


            T            T            T            T   
   |----3---|   |----3---|   |----3---|   |----3---|   
   E    E   E   E    E   E   E    E   E   E    E   E   
--10h--14--17--10h--14--17--10h--14--17--10h--14--17--|
------------------------------------------------------|
------------------------------------------------------|
------------------------------------------------------|
------------------------------------------------------|
------------------------------------------------------|


            T            T            T            T   
   |----3---|   |----3---|   |----3---|   |----3---|   
   E    E   E   E    E   E   E    E   E   E    E   E   
--12h--16--19--12h--16--19--12h--16--19--12h--16--19--|
------------------------------------------------------|
------------------------------------------------------|
------------------------------------------------------|
------------------------------------------------------|
------------------------------------------------------|


  PM  PM  PM PM  PM  PM PM  PM  PM PM  PM  PM  
  |---3---|  |---3---|  |---3---|  |---3---|   
  E   E   E  E   E   E  E   E   E  E   E   E   
----------------------------------------------|
----------------------------------------------|
----------------------------------------------|
-------------9---------------------9--11--12--|
--9--11--12-----12--11--9--11--12-------------|
----------------------------------------------|


  PM  PM  PM PM  PM  PM PM  PM  PM PM  PM  PM  
  |---3---|  |---3---|  |---3---|  |---3---|   
  E   E   E  E   E   E  E   E   E  E   E   E   
----------------------------------------------|
----------------------------------------------|
-------------9---------------------9--11--13--|
--9--11--12-----12--11--9--11--12-------------|
----------------------------------------------|
----------------------------------------------|


  PM  PM  PM  PM  PM  PM PM  PM  PM              
  |---3---|   |---3---|  |---3---|   |---3---|   
  E   E   E   E   E   E  E   E   E   E   E   E   
------------------------------------------------|
-------------10---------------------10--12--14--|
--9--11--13------13--11--9--11--13--------------|
------------------------------------------------|
------------------------------------------------|
------------------------------------------------|


   |---3---|   |---3---|   |---3---|   |---3---|   
   E   E   E   E   E   E   E   E   E   E   E   E   
--------------10----------------------10--12--14--|
--10--12--14------14--12--10--12--14--------------|
--------------------------------------------------|
--------------------------------------------------|
--------------------------------------------------|
--------------------------------------------------|


   |---3---|   |---3---|   |---3---|   |---3---|   
   E   E   E   E   E   E   E   E   E   E   E   E   
--12--14--16--12--14--16--14--16--17--14--16--17--|
--------------------------------------------------|
--------------------------------------------------|
--------------------------------------------------|
--------------------------------------------------|
--------------------------------------------------|


   |---3---|   |---3---|                                     |---3---|   
   E   E   E   E   E   E   H             Q.        Q     E   E   E   E   
--16--17--19--16--17--19--19b--------|--19brb------L-----L--17--19--17--|
-------------------------------------|----------------------------------|
-------------------------------------|----------------------------------|
-------------------------------------|----------------------------------|
-------------------------------------|----------------------------------|
-------------------------------------|----------------------------------|


   Q    Q     Q    Q        W                   W                 
------------------------|--------------------|-------------------|
--19----L----17----L----|--20----------------|--L----------------|
------------------------|--------------------|-------------------|
------------------------|--------------------|-------------------|
------------------------|--------------------|-------------------|
------------------------|--------------------|-------------------|


  W                   W                                                         
-------------------|-------------------|-------------------|-------------------|
--L----------------|--L----------------|-------------------|-------------------|
-------------------|-------------------|-------------------|-------------------|
-------------------|-------------------|-------------------|-------------------|
-------------------|-------------------|-------------------|-------------------|
-------------------|-------------------|-------------------|-------------------|




           T                 T                 T   
  S  S  S  S  S  S  S  S  S  S  S  S  S  S  S  S   
--------------------------------------------------|
--0h-5h-8-13p-8p-5p-0h-5h-8-13p-8p-5p-0h-5h-8-13h-|
--------------------------------------------------|
--------------------------------------------------|
--------------------------------------------------|
--------------------------------------------------|


                 T                 T              
  S  S  S  S  S  S  S  S  S  S  S  S  S  S  S  S  
-------------------------------------------------|
--8p-5p-0h-5h-8-13p-8p-5p-0h-5h-8-10p-8p-5p-0h-5-|
-------------------------------------------------|
-------------------------------------------------|
-------------------------------------------------|
-------------------------------------------------|


     T                 T                 T         
  S  S  S  S  S  S  S  S  S  S  S  S  S  S  S  S   
--------------------------------------------------|
--8-10p-8p-5p-0h-5h-8-10p-8p-5p-0h-5h-8-10p-8p-5h-|
--------------------------------------------------|
--------------------------------------------------|
--------------------------------------------------|
--------------------------------------------------|


           T                 T                 T   
  S  S  S  S  S  S  S  S  S  S  S  S  S  S  S  S   
--------------------------------------------------|
--0h-5h-8-12p-8p-5p-0h-5h-8-12p-8p-5p-0h-5h-8-12h-|
--------------------------------------------------|
--------------------------------------------------|
--------------------------------------------------|
--------------------------------------------------|


  S  S  S  S  S  S  S  S  S  S  S  S  S  S  S  S   
--------------------------------------------------|
--8p-5p-0h-5h-8-12p-8p-5p-0h-5h-8-10p-8p-5p-0h-5h-|
--------------------------------------------------|
--------------------------------------------------|
--------------------------------------------------|
--------------------------------------------------|


  S  S  S  S  S  S  S  S  S  S  S  S  S  S  S  S   
--------------------------------------------------|
--8-10p-8p-5p-0h-5h-8-10p-8p-5p-0h-5h-8-10p-8p-5h-|
--------------------------------------------------|
--------------------------------------------------|
--------------------------------------------------|
--------------------------------------------------|


           T                 T                 T   
  S  S  S  S  S  S  S  S  S  S  S  S  S  S  S  S   
--------------------------------------------------|
--0h-5h-8-13p-8p-5p-0h-5h-8-13p-8p-5p-0h-5h-8-13h-|
--------------------------------------------------|
--------------------------------------------------|
--------------------------------------------------|
--------------------------------------------------|


                 T                 T               
  S  S  S  S  S  S  S  S  S  S  S  S  S  S  S  S   
--------------------------------------------------|
--8p-5p-0h-5h-8-13p-8p-5p-0h-5h-8-10p-8p-5p-0h-5h-|
--------------------------------------------------|
--------------------------------------------------|
--------------------------------------------------|
--------------------------------------------------|


     T                 T                 T         
  S  S  S  S  S  S  S  S  S  S  S  S  S  S  S  S   
--------------------------------------------------|
--8-10p-8p-5p-0h-5h-8-10p-8p-5p-0h-5h-8-10p-8p-5h-|
--------------------------------------------------|
--------------------------------------------------|
--------------------------------------------------|
--------------------------------------------------|


           T                 T                 T   
  S  S  S  S  S  S  S  S  S  S  S  S  S  S  S  S   
--------------------------------------------------|
--0h-5h-8-12p-8p-5p-0h-5h-8-12p-8p-5p-0h-5h-8-12h-|
--------------------------------------------------|
--------------------------------------------------|
--------------------------------------------------|
--------------------------------------------------|


                 T                 T               
  S  S  S  S  S  S  S  S  S  S  S  S  S  S  S  S   
--------------------------------------------------|
--8p-5p-0h-5h-8-12p-8p-5p-0h-5h-8-10p-8p-5p-0h-5h-|
--------------------------------------------------|
--------------------------------------------------|
--------------------------------------------------|
--------------------------------------------------|


     T                 T                 T         
  S  S  S  S  S  S  S  S  S  S  S  S  S  S  S  S   
--------------------------------------------------|
--8-10p-8p-5p-0h-5h-8-10p-8p-5p-0h-5h-8-10p-8p-5h-|
--------------------------------------------------|
--------------------------------------------------|
--------------------------------------------------|
--------------------------------------------------|


           T                 T                 T   
  S  S  S  S  S  S  S  S  S  S  S  S  S  S  S  S   
--------------------------------------------------|
--0h-5h-8-13p-8p-5p-0h-5h-8-13p-8p-5p-0h-5h-8-13h-|
--------------------------------------------------|
--------------------------------------------------|
--------------------------------------------------|
--------------------------------------------------|


                 T                 T              
  S  S  S  S  S  S  S  S  S  S  S  S  S  S  S  S  
-------------------------------------------------|
--8p-5p-0h-5h-8-13p-8p-5p-0h-5h-8-10p-8p-5p-0h-5-|
-------------------------------------------------|
-------------------------------------------------|
-------------------------------------------------|
-------------------------------------------------|


     T                 T                 T                                    
  S  S  S  S  S  S  S  S  S  S  S  S  S  S  S  S     S  S  S H        Q    S  
--------------------------------------------------|--------------------------|
--8-10p-8p-5p-0h-5h-8-10p-8p-5p-0h-5h-8-10p-8p-5h-|--0h-5h-8-5--------L----L-|
--------------------------------------------------|--------------------------|
--------------------------------------------------|--------------------------|
--------------------------------------------------|--------------------------|
--------------------------------------------------|--------------------------|





Duration Legend
---------------
W - whole
H - half
Q - quarter
E - 8th
S - 16th
T - 32nd
X - 64th
. - note dotted
|-n-|  - n-tuplets


Tablature Legend
----------------
L - tied note
x - dead note
g - grace note
(n) - ghost note
> - accentuded note
NH - natural harmonic
AH - artificial harmonic
TH - tapped harmonic
SH - semi harmonic
PH - pitch harmonic
h - hammer on
p - pull off
b - bend
br - bendRelease
pb - preBend
pbr - preBendRelease
brb - bendReleaseBend
\n/ - tremolo bar dip
\n - tremolo bar dive
-/n - tremolo bar Release up
/n\ - tremolo bar inverted dip
/n - tremolo bar return
-\n - tremolo bar Release down
S - shift slide
s - legato slide
/ -  slide into from below or out of upwards
\ -  slide into from above or out of downwards
~ - vibrato
W - wide vibrato
tr - trill
TP - tremolo picking
T - tapping
S - slap
P - pop
< - fade in
^ - brush up
v - brush down
Suggest correction
Give kudos to tab author, rate the tab!
1 2 3 4 5
comments
print report bad tab
guest
You may want to rate the tab now too:
select rating
Wanna post a correction for this tab? Suggest correction