Oops, an error
Loading. Please wait.

Army Of Noise tab

version 1
version 1

Whole song

Interactive

4,492 views 27 this week
no commentswrite comment
1 2 3 4 5
x 4
add to favorites
×
Save as Personal and add changes to this tab that will be seen only by you. Learn more ›
×
You can save this tab as Personal to edit and correct it or add notes. All changes will be seen only by you. Learn more »
launch autoscroll
font size
0
reset
how to read this tab
guitar tuner
backing track
0:00
0:00
edit
Autoscroll
slow
fast
+/-
esc
set tempo
stop
---------------------------------------------------------------------------------------------------------
                             Army Of Noise - Bullet For My Valentine - Venom
---------------------------------------------------------------------------------------------------------
Tabbed by: randomdemon11
E-mail: randomdemon@hotmail.co.uk

Tuning: Drop C
Pace: 175bpm

Hi, guys! This song is one of my favourites, if not the favourite, from the album. It's so thrashy and the
riffs are just so goddamn catchy!  I've included all the guitar parts in this tab. I learned everything by
ear and slowed down the more difficult sections for the most accurate tabbing.

The timings shown are for the Spotify version of Army Of Noise from the full album, Venom, though I'm sure
they'll be accurate enough for other versions and the YouTube official video. For help with timing, the
quavers of each bar are represented by the "1 & 2 & 3 & 4 &". Side note: some of the sections have had the
spacing between the "1 & 2 & 3 & 4 &" modified to accommodate for those pesky double digit frets
(and the solo) and keep everything in line. Rhythm is important. For further guidance, I've also added lyrics
alongside some of the sections, so you don't lose track of where you are.

I've put the guitar parts next to each other in their relative sections rather than tabbing all of guitar
1 and then all of guitar 2 so it'll be easier to see what's going on when. Sometimes, there's an additional
guitar (Guitar 3) for when harmonies are introduced. This is a recorded guitar and has been laid on top of
Matt and Padge's guitars.

Enjoy the tab!

Intro      (0:00 - 0:23)
Verse 1    (0:23 - 0:52)
Pre-Chorus (0:52 - 1:03)
Chorus     (1:03 - 1:27)
Pre-Verse  (1:27 - 1:32)
Verse 2    (1:32 - 2:01)
Pre-Chorus (2:01 - 2:12)
Chorus     (2:12 - 2:36)
Breakdown  (2:36 - 3:01)
Solo       (3:01 - 3:34)
Pre-Chorus (3:34 - 3:45)
Chorus     (3:45 - 4:08)
Outro      (4:08 - 4:18)



Intro 
(0:00 - 0:23)

Guitar 1

   1   &   2   &   3   &   4   &     1   &   2   &   3   &   4   &
D|---------------------------------|---------------------------------|
A|---------------------------------|---------------------------------|
F|---------------------------------|---------------------------------|
C|---------------------------------|---------------------------------|
G|---------------------------------|---------------------------------|
C|-7p0-0-0-0-0-0-0-0-0-0-0-0-0-3p0h|-2p0-0-0-0-0-0-0-0-0-0-0-0-0-0-0-|
       . . . . . . . . . . . .           . . . . . . . . . . . . . .  

   1   &   2   &   3   &   4   &     1   &   2   &   3   &   4   &
D|---------------------------------|---------------------------------|
A|---------------------------------|---------------------------------|
F|---------------------------------|---------------------------------|
C|---------------------------------|---------------------------------|
G|---------------------------------|-----------------3-------5-------|
C|-7p0-0-0-0-0-0-0-0-0-0-0-0-0-3p0h|-2p0-0-0-0-0-0-0-3-------5-------|
       . . . . . . . . . . . .           . . . . . .  

   1   &   2   &   3   &   4   &     1   &   2   &   3   &   4   &
D|---------------------------------|---------------------------------|
A|---------------------------------|---------------------------------|
F|---------------------------------|---------------------------------|
C|---------------------------------|---------------------------------|
G|---------------------------------|---------------------------------|
C|-7p0-0-0-0-0-0-0-0-0-0-0-0-0-7p0h|-6p0-0-0-0-0-0-0-0-0-0-0-0-0-3p0h|
       . . . . . . . . . . . .           . . . . . . . . . . . .      

   1   &   2   &   3   &   4   &     1   &   2   &   3   &   4   &
D|---------------------------------|---------------------------------|
A|---------------------------------|---------------------------------|
F|---------------------------------|---------------------------------|
C|---------------------------------|---------------------------------|
G|---------------------------------|-----------------8-------10------|
C|-2p0-0-0-0-0-0-0-0-0-0-0-0-0-7p0h|-6p0-0-0-0-0-0-0-8-------10------|
       . . . . . . . . . . . .           . . . . . .   

Guitar 2

   1   &   2   &   3   &   4   &     1   &   2   &   3   &   4   &
D|---------------------------------|---------------------------------|
A|---------------------------------|---------------------------------|
F|--------(RANDOM NOISES AND PINCH HARMONICS AND WHAMMY BARS)--------| x4
C|---------------------------------|---------------------------------|
G|---------------------------------|---------------------------------|
C|---------------------------------|---------------------------------|

Guitars 1 and 2

   1   &   2   &   3   &   4   &     1   &   2   &   3   &   4   &
D|---------------------------------|---------------------------------|
A|---------------------------------|---------------------------------|
F|---------------------------------|---------------------------------|
C|---------------------------------|---------------------------------|
G|---------------------------------|---------------------------------|
C|-7p0-0-0-0-0-0-0-0-0-0-0-0-0-7p0h|-6p0-0-0-0-0-0-0-0-0-0-0-0-0-3p0h|
       . . . . . . . . . . . .           . . . . . . . . . . . .  
      
   1   &   2   &   3   &   4   &     1   &   2   &   3   &   4   &
D|---------------------------------|---------------------------------|
A|---------------------------------|---------------------------------|
F|---------------------------------|---------------------------------|
C|---------------------------------|---------------------------------|
G|---------------------------------|-----------------3-------5-------|
C|-2p0-0-0-0-0-0-0-0-0-0-0-0-0-7p0h|-6p0-0-0-0-0-0-0-3-------5-------|
       . . . . . . . . . . . .           . . . . . .   

   1   &   2   &   3   &   4   &     1   &   2   &   3   &   4   &
D|---------------------------------|---------------------------------|
A|---------------------------------|---------------------------------|
F|---------------------------------|---------------------------------|
C|---------------------------------|---------------------------------|
G|---------------------------------|---------------------------------|
C|-7p0-0-0-0-0-0-0-0-0-0-0-0-0-7p0h|-6p0-0-0-0-0-0-0-0-0-0-0-0-0-3p0h|
       . . . . . . . . . . . .           . . . . . . . . . . . .  
      
   1   &   2   &   3   &   4   &     1   &   2   &   3   &   4   &
D|---------------------------------|---------------------------------|
A|---------------------------------|---------------------------------|
F|---------------------------------|---------------------------------|
C|---------------------------------|---------------------------------|
G|---------------------------------|-----------------8-------10------|
C|-2p0-0-0-0-0-0-0-0-0-0-0-0-0-7p0h|-6p0-0-0-0-0-0-0-8-------10------|
       . . . . . . . . . . . .           . . . . . .   



Verse 1 
(0:23 - 0:52)

Guitars 1 and 2

   1   &   2   &   3   &   4   &     1   &   2   &   3   &   4   &
D|---------------------------------|---------------------------------|
A|---------------------------------|---------------------------------|
F|---------------------------------|---------------------------------|
C|---------------------------------|---------------------------------|
G|---------------------------------|---------------------------------|
C|-7p0-0-0-0-0-0-0-0-0-0-0-0-0-0-0-|-0-0-0-0-0-0-0-0-0-0-0-0-0-0-0-0-|
       . . . . . . . . . . . . . .   . . . . . . . . . . . . . . . . 
Anticipation, we're on the attack.      

   1   &   2   &   3   &   4   &     1   &   2   &   3   &   4   &
D|---------------------------------|---------------------------------|
A|---------------------------------|---------------------------------|
F|---------------------------------|---------------------------------|
C|---------------------------------|---------------------------------|
G|---------------------------------|-----------------3-------5-------|
C|-0-0-0-0-0-0-0-0-0-0-0-0-0-0-0-0-|-0-0-0-0-0-0-0-0-3-------5-------|
   . . . . . . . . . . . . . . . .   . . . . . . . .  
Just keep pushing forward...

   1   &   2   &   3   &   4   &     1   &   2   &   3   &   4   &
D|---------------------------------|---------------------------------|
A|---------------------------------|---------------------------------|
F|---------------------------------|---------------------------------|
C|---------------------------------|---------------------------------|
G|---------------------------------|---------------------------------|
C|-0-0-0-0-0-0-0-0-0-0-0-0-0-0-0-0-|-0-0-0-0-0-0-0-0-0-0-0-0-0-0-0-0-|
   . . . . . . . . . . . . . . . .   . . . . . . . . . . . . . . . .
There is a tension... 
      
   1   &   2   &   3   &   4   &     1   &   2   &   3   &   4   &
D|---------------------------------|---------------------------------|
A|---------------------------------|---------------------------------|
F|---------------------------------|---------------------------------|
C|---------------------------------|---------------------------------|
G|---------------------------------|-----------------8-------10------|
C|-0-0-0-0-0-0-0-0-0-0-0-0-0-0-0-0-|-0-0-0-0-0-0-0-0-8-------10------|
   . . . . . . . . . . . . . . . .   . . . . . . . . 
So take a deep breath... 

   1   &   2   &   3   &   4   &    
D|---------------------------------|
A|---------------------------------|
F|---------------------------------|
C|---------------------------------|
G|-5---5-5-6---6-6-7---------------|
C|-5---5-5-6---6-6-7-------12\-----|
   .   . . .   . .  

   1   &   2   &   3   &   4   &     1   &   2   &   3   &   4   &
D|---------------------------------|---------------------------------|
A|---------------------------------|---------------------------------|
F|---------------------------------|---------------------------------|
C|---------------------------------|---------------------------------|
G|---------------------------------|---------------------------------|
C|-7p0-0-0-0-0-0-0-0-0-0-0-0-0-7p0h|-6p0-0-0-0-0-0-0-0-0-0-0-0-0-3p0h|
       . . . . . . . . . . . .           . . . . . . . . . . . .  
LIGHTS OUT!

   1   &   2   &   3   &   4   &     1   &   2   &   3   &   4   &
D|---------------------------------|---------------------------------|
A|---------------------------------|---------------------------------|
F|---------------------------------|---------------------------------|
C|---------------------------------|---------------------------------|
G|---------------------------------|-----------------3-------5-------|
C|-2p0-0-0-0-0-0-0-0-0-0-0-0-0-7p0h|-6p0-0-0-0-0-0-0-3-------5-------|
       . . . . . . . . . . . .           . . . . . .   
Adrenaline rushing...

   1   &   2   &   3   &   4   &     1   &   2   &   3   &   4   &
D|---------------------------------|---------------------------------|
A|---------------------------------|---------------------------------|
F|---------------------------------|---------------------------------|
C|---------------------------------|---------------------------------|
G|---------------------------------|---------------------------------|
C|-7p0-0-0-0-0-0-0-0-0-0-0-0-0-7p0h|-6p0-0-0-0-0-0-0-0-0-0-0-0-0-3p0h|
       . . . . . . . . . . . .           . . . . . . . . . . . .  
Now feel the heat...
      
   1   &   2   &   3   &   4   &     1   &   2   &   3   &   4   &
D|---------------------------------|---------------------------------|
A|---------------------------------|---------------------------------|
F|---------------------------------|---------------------------------|
C|---------------------------------|---------------------------------|
G|---------------------------------|-----------------8-------10------|
C|-2p0-0-0-0-0-0-0-0-0-0-0-0-0-7p0h|-6p0-0-0-0-0-0-0-8-------10------|
       . . . . . . . . . . . .           . . . . . .   
Bodies are thrashing...

   1   &   2   &   3   &   4   &     1   &   2   &   3   &   4   &
D|---------------------------------|---------------------------------|
A|---------------------------------|---------------------------------|
F|---------------------------------|---------------------------------|
C|---------------------------------|---------------------------------|
G|-8---8-8-8-8-8~----------8~------|-8---8-8-8-8-8~----------8~------|
C|-8---8-8-8-8-8~----------8~------|-8---8-8-8-8-8~----------8~------|
       . . . .                           . . . .
                           We're gonna watch it...

   1   &   2   &   3   &   4   &     1   &   2   &   3   &   4   &
D|---------------------------------|---------------------------------|
A|---------------------------------|---------------------------------|
F|---------------------------------|---------------------------------|
C|---------------------------------|---------------------------------|
G|-7---7-7-7-7-7~----------7~------|-6---6-6-6-6-6~----------6~------|
C|-7---7-7-7-7-7~----------7~------|-6---6-6-6-6-6~----------6~------|
       . . . .                           . . . .
...burn.                             Let it turn to dust.




Pre-Chorus 
(0:52 - 1:03)

Guitar 1

   1   &   2   &   3   &   4   &     1   &   2   &   3   &   4   &
D|---------------------------------|---------------------------------|
A|---------------------------------|---------------------------------|
F|-7---7---7---7---7---7---7---7---|-7---7---7---7---7---7---7---7---|
C|-x---x---x---x---x---x---x---x---|-x---x---x---x---x---x---x---x---|
G|-5---5---5---5---5---5---5---5---|-5---5---5---5---5---5---5---5---|
C|---------------------------------|---------------------------------|

                                     Behold the madness

   1   &   2   &   3   &   4   &     1   &   2   &   3   &   4   &
D|---------------------------------|---------------------------------|
A|---------------------------------|---------------------------------|
F|-8---8---8---8---8---8---8---8---|-8---8---8---8---8---8---8---8---|
C|-x---x---x---x---x---x---x---x---|-x---x---x---x---x---x---x---x---|
G|-5---5---5---5---5---5---5---5---|-5---5---5---5---5---5---5---5---|
C|---------------------------------|---------------------------------|

Such a beautiful sight

   1   &   2   &   3   &   4   &     1   &   2   &   3   &   4   &
D|---------------------------------|---------------------------------|
A|-6---6---6---6---6---6---6---6---|-6---6---6---6---6---6---6---6---|
F|-x---x---x---x---x---x---x---x---|-x---x---x---x---x---x---x---x---|
C|-x---x---x---x---x---x---x---x---|-x---x---x---x---x---x---x---x---|
G|-5---5---5---5---5---5---5---5---|-5---5---5---5---5---5---5---5---|
C|---------------------------------|---------------------------------|

                      It will never get old

   1   &   2   &   3   &   4   &     1   &   2   &   3   &   4   &
D|---------------------------------|---------------------------------|
A|-8---8---8---8---8---8---8---8---|---------------------------------|
F|-x---x---x---x---x---x---x---x---|---------------------------------|
C|-x---x---x---x---x---x---x---x---|---------------------------------|
G|-5---5---5---5---5---5---5---5---|-6---5---3-------3---------------|
C|---------------------------------|-------------6-------5---6---3---|

                              Here's to chaos tonight
                                       Soooooooooooo

Guitar 2

   1   &   2   &   3   &   4   &     1   &   2   &   3   &   4   &
D|---------------------------------|---------------------------------|
A|------(Make sure those vibratos are sexy)--------------------------|
F|---------------------------------|---------------------------------|
C|---------------------------------|---------------------------------|
G|-3-----------5~------------------|-3-----------5~------------------|
C|-----0---0---------------0---0---|-----0---0---------------0---0---|
       .   .               .   .         .   .               .   .
                                     Behold the madness

   1   &   2   &   3   &   4   &     1   &   2   &   3   &   4   &
D|---------------------------------|---------------------------------|
A|---------------------------------|---------------------------------|
F|---------------------------------|---------------------------------|
C|---------------------------------|---------------------------------|
G|-3-----------6~------------------|-3-----------6~------------------|
C|-----0---0---------------0---0---|-----0---0---------------0---0---|
       .   .               .   .         .   .               .   .
Such a beautiful sight

   1   &   2   &   3   &   4   &     1   &   2   &   3   &   4   &
D|---------------------------------|---------------------------------|
A|---------------------------------|---------------------------------|
F|---------------------------------|---------------------------------|
C|---------------------------------|---------------------------------|
G|-3-----------8~------------------|-3-----------8~------------------|
C|-----0---0---------------0---0---|-----0---0---------------0---0---|
       .   .               .   .         .   .               .   .
                      It will never get old

   1   &   2   &   3   &   4   &     1   &   2   &   3   &   4   &
D|---------------------------------|---------------------------------|
A|---------------------------------|---------------------------------|
F|---------------------------------|---------------------------------|
C|---------------------------------|---------------------------------|
G|-3-----------5~------------------|-6---5---3-------3---------------|
C|-----0---0---------------0---0---|-------------6-------5---6---3---|
       .   .               .   .
                              Here's to chaos tonight
                                       Soooooooooooo



Chorus 
(1:03 - 1:27)

Guitars 1 and 2

   1   &   2   &   3   &   4   &     1   &   2   &   3   &   4   &
D|---------------------------------|---------------------------------|
A|----------(Vibratos = sexy here too)-------------------------------|
F|---------------------------------|---------------------------------|
C|---------------------------------|---------------------------------|
G|-------------6-------3---5~------|---------------------------------|---|
C|-0---0-0-0-----------------------|-0---0-0-0---0---0-0-0---0-0-0---|   |
   .   . . .                         .   . . .   .   . . .   . . .       |
SO! Here we are.                                                         |
                                                                         |
   1   &   2   &   3   &   4   &     1   &   2   &   3   &   4   &       |
D|---------------------------------|---------------------------------|   |
A|-----------(But pinch harmonics are even sexier)-------------------|   |
F|---------------------------------|---------------------------------|   |
C|---------------------------------|---------------------------------|   |
G|-------------6-------3---5*~-----|---------------------------------|   |
C|-0---0-0-0-----------------------|-5---5-5-6---6-6-7---7-7-8---8-8-|   |
   .   . . .                         .   . . .   . . .   . . .   . .     |
Weapons in arms.                                                         |
                                                                         | x2
   1   &   2   &   3   &   4   &     1   &   2   &   3   &   4   &       |
D|---------------------------------|---------------------------------|   |
A|---------------------------------|---------------------------------|   |
F|---------------------------------|---------------------------------|   |
C|---------------------------------|---------------------------------|   |
G|-------------6-------3---5~------|---------------------------------|   |
C|-0---0-0-0-----------------------|-0---0-0-0---0---0-0-0---0-0-0---|   |
   .   . . .                         .   . . .   .   . . .   . . .       |
Army of Noise                                                            |
                                                                         |
   1   &   2   &   3   &   4   &     1   &   2   &   3   &   4   &       |
D|---------------------------------|---------------------------------|   |
A|-------------------------------------------------------------------|---|
F|---------------------------------|---------------------------------|
C|---------------------------------|---------------------------------|
G|-------------6-------3---5~------|---------------------------------|
C|-0---0-0-0-----------------------|-5---5-5-6---6-6-3---3-3-5---5-5-|
   .   . . .                         .   . . .   . . .   . . .   . . 
Has come to destroy.

   1   &   2   &   3   &   4   &    
D|---------------------------------|
A|---------------------------------|
F|---------------------------------|
C|---------------------------------|
G|---------------------------------|
C|-5-5-5-5-6-6-6-6-3-3-3-3-1-1-1-1-|

...noooiiiiise.



Pre-Verse 
(1:27 - 1:32)

Guitar 1

   1   &   2   &   3   &   4   &     1   &   2   &   3   &   4   &
D|---------------------------------|---------------------------------|
A|---------------------------------|---------------------------------|
F|---------------------------------|---------------------------------|
C|---------------------------------|---------------------------------|
G|---------------------------------|---------------------------------|
C|-7p0-0-0-0-0-0-0-0-0-0-0-0-0-7p0h|-6p0-0-0-0-0-0-0-0-0-0-0-0-0-3p0h|
       . . . . . . . . . . . .           . . . . . . . . . . . .      

   1   &   2   &   3   &   4   &     1   &   2   &   3   &   4   &
D|---------------------------------|---------------------------------|
A|---------------------------------|---------------------------------|
F|---------------------------------|---------------------------------|
C|---------------------------------|---------------------------------|
G|---------------------------------|-----------------8-------10------|
C|-2p0-0-0-0-0-0-0-0-0-0-0-0-0-7p0h|-6p0-0-0-0-0-0-0-8-------10------|
       . . . . . . . . . . . .           . . . . . .   

Guitar 2

   1   &   2   &   3   &   4   &     1   &   2   &   3   &   4   &
D|---------------------------------|---------------------------------|
A|---------------------------------|---------------------------------|
F|---------------------------------|---------------------------------|
C|---------------------------------|---------------------------------|
G|---------------------------------|---------------------------------|
C|-0---------------------------7p0h|-6p0-------------------------3p0h| 

   1   &   2   &   3   &   4   &     1   &   2   &   3   &   4   &
D|---------------------------------|---------------------------------|
A|---------------------------------|---------------------------------|
F|---------------------------------|---------------------------------|
C|---------------------------------|---------------------------------|
G|---------------------------------|-----------------8-------10------|
C|-2p0-------------------------7p0h|-6p0-------------8-------10------|



Verse 2 
(1:32 - 2:01) - Same as Verse 1

Pre-Chorus 
(2:01 - 2:12)

Chorus 
(2:12 - 2:36)



Breakdown 
(2:36 - 3:01)

Guitars 1 and 2

   1   &   2   &   3   &   4   &     1   &   2   &   3   &   4   &
D|---------------------------------|---------------------------------|
A|---------------------------------|---------------------------------|
F|---------------------------------|---------------------------------|
C|-0~------------------------------|-------------------------8---0~--|
G|-0~------------------------------|-------------------------8---0~--|
C|-0~------------------------------|-------------------------8---0~--|

   1   &   2   &   3   &   4   &     1   &   2   &   3   &   4   &
D|---------------------------------|---------------------------------|
A|---------------------------------|---------------------------------|
F|---------------------------------|---------------------------------|
C|---------------------------------|-------------------------1---0~--|
G|---------------------------------|-------------------------1---0~--|
C|---------------------------------|-------------------------1---0~--|

   1   &   2   &   3   &   4   &     1   &   2   &   3   &   4   &
D|---------------------------------|---------------------------------|
A|---------------------------------|---------------------------------|
F|---------------------------------|---------------------------------|
C|---------------------------------|---------------------------------|
G|---------------------------------|-----------------0---6---7---8~--|
C|---------------------------------|-----------------0---6---7---8~--|
                                                     .   .   .   

   1   &   2   &   3   &   4   &     1   &   2   &   3   &   4   &
D|---------------------------------|---------------------------------|
A|---------------------------------|---------------------------------|
F|---------------------------------|---------------------------------|
C|---------------------------------|---------------------------------|
G|-----------------8---8---7---6~--|-----------------6---7---8---0---|
C|-----------------8---8---7---6~--|-----------------6---7---8---0---|
                   .   .   .                         .   .   .

   1   &   2   &   3   &   4   &     1   &   2   &   3   &   4   &
D|---------------------------------|---------------------------------|
A|---------------------------------|---------------------------------|
F|-----(BANG THOSE HEADS!!!!)------|---------------------------------|
C|---------------------------------|---------------------------------|
G|---------------------------------|-----------------0---0---1---0---|
C|-----0---0-0-0-------0---0-0-0---|-0-0-0---0-0-0---0---0---1---0---|
       .   . .         .   . . .     . . .   . . .   .   .   .

   1   &   2   &   3   &   4   &     1   &   2   &   3   &   4   &
D|---------------------------------|---------------------------------|
A|---------------------------------|---------------------------------|
F|-----------------(The harder you hit this harmonic, the better)----|
C|-----------------(Also, only one guitar plays the harmonic)--------|
G|---------------------------------|-----------------0---0---1---0---|
C|-----0---0-0-0---3+~~~~~~~~~~~~~~|~~~~~~~~~~~~~~~~~0---0---1---0---|
       .   . .                                       .   .   .

   1   &   2   &   3   &   4   &     1   &   2   &   3   &   4   &
D|---------------------------------|---------------------------------|
A|---------------------------------|---------------------------------|
F|---------------------------------|---------------------------------|
C|---------------------------------|---------------------------------|
G|---------------------------------|-----------------0---6---7---8~--|
C|-----0---0-0-0-------0---0-0-0---|-0-0-0---0-0-0---0---6---7---8~--|
       .   . .         .   . . .     . . .   . . .   .   .   .     

   1   &   2   &   3   &   4   &     1   &   2   &   3   &   4   &
D|---------------------------------|---------------------------------|
A|---------------------------------|---------------------------------|
F|---------------------------------|---------------------------------|
C|---------------------------------|---------------------------------|
G|-----------------8---8---7---6~--|-----------------6---7---8-------|
C|-----------------8---8---7---6~--|-----------------6---7---8-------|
                   .   .   .                         .   .   



Solo 
(3:01 - 3:34)

Guitar 1

   1   &   2   &   3   &   4   &     1   &   2   &   3   &   4   &
D|---------------------------------|---------------------------------|
A|---------------------------------|---------------------------------|
F|---------------------------------|---------------------------------|
C|---------------------------------|---------------------------------|
G|---------------------------------|-----------------6---5---3---5---|
C| 7p0-0-0-0-0-0-0-0-0-0-0-0-0-7p0h|-6p0-0-0-0-0-0-0-6---5---3---5---|
       . . . . . . . . . . . .           . . . . . .

   1   &   2   &   3   &   4   &     1   &   2   &   3   &   4   &
D|---------------------------------|---------------------------------|
A|---------------------------------|---------------------------------|
F|---------------------------------|---------------------------------|
C|---------------------------------|---------------------------------|
G|---------------------------------|-----------------1-------1-------|
C| 7p0-0-0-0-0-0-0-0-0-0-0-0-0-7p0h|-6p0-0-0-0-0-0-0-1-------1-------|
       . . . . . . . . . . . .           . . . . . .

   1   &   2   &   3   &   4   &     1   &   2   &   3   &   4   &
D|---------------------------------|---------------------------------|
A|---------------------------------|---------------------------------|
F|---------------------------------|---------------------------------|
C|---------------------------------|---------------------------------|
G|---------------------------------|-----------------6---5---3---5---|
C| 7p0-0-0-0-0-0-0-0-0-0-0-0-0-7p0h|-6p0-0-0-0-0-0-0-6---5---3---5---|
       . . . . . . . . . . . .           . . . . . .

   1   &   2   &   3   &   4   &     1   &   2   &   3   &   4   &
D|---------------------------------|---------------------------------|
A|---------------------------------|---------------------------------|
F|---------------------------------|---------------------------------|
C|---------------------------------|---------------------------------|
G|-6---6-6-6-6-6~----------6~------|-5---5-5-5-5-5---5---3---5---7---|
C|-6---6-6-6-6-6~----------6~------|-5---5-5-5-5-5---5---3---5---7---|
       . . . .                           . . . .

   1   &   2   &   3   &   4   &     1   &   2   &   3   &   4   &
D|---------------------------------|---------------------------------|
A|---------------------------------|---------------------------------|
F|---------------------------------|---------------------------------|
C|---------------------------------|---------------------------------|
G|---------------------------------|-----------------6---5---3---5---|
C| 7p0-0-0-0-0-0-0-0-0-0-0-0-0-7p0h|-6p0-0-0-0-0-0-0-6---5---3---5---|
       . . . . . . . . . . . .           . . . . . .

   1   &   2   &   3   &   4   &     1   &   2   &   3   &   4   &
D|---------------------------------|---------------------------------|
A|---------------------------------|---------------------------------|
F|---------------------------------|-----------------(DUM DUM)-------|
C|---------------------------------|---------------------------------|
G|---------------------------------|-----------------1~------1~------|
C| 7p0-0-0-0-0-0-0-0-0-0-0-0-0-7p0h|-6p0-0-0-0-0-0-0-1~------1~------|
       . . . . . . . . . . . .           . . . . . . .       .

   1   &   2   &   3   &   4   &     1   &   2   &   3   &   4   &
D|---------------------------------|---------------------------------|
A|---------------------------------|---------------------------------|
F|---------------------------------|---------------------------------|
C|---------------------------------|---------------------------------|
G|---------------------------------|-----------------6---5---3---5---|
C| 7p0-0-0-0-0-0-0-0-0-0-0-0-0-7p0h|-6p0-0-0-0-0-0-0-6---5---3---5---|
       . . . . . . . . . . . .           . . . . . .

   1   &   2   &   3   &   4   &     1   &   2   &   3   &   4   &
D|---------------------------------|---------------------------------|
A|---------------------------------|---------------------------------|
F|---------------------------------|---------------------------------|
C|---------------------------------|---------------------------------|
G|-6---6-6-6-6-6~----------6~------|-5---5-5-5-5-5~----------5~------|
C|-6---6-6-6-6-6~----------6~------|-5---5-5-5-5-5~----------5~------|
       . . . .                           . . . .

   1   &   2   &   3   &   4   &     1   &   2   &   3   &   4   &
D|---------------------------------|---------------------------------|
A|---------------------------------|---------------------------------|
F|---------------------------------|---------------------------------|
C|---------------------------------|---------------------------------|
G|-3---3-3-3-3-3~----------3~------|-3---3-3-3-3-3~----------3~------|
C|-3---3-3-3-3-3~----------3~------|-3---3-3-3-3-3~----------3~------|
       . . . .                           . . . .

   1   &   2   &   3   &   4   &     1   &   2   &   3   &   4   &
D|---------------------------------|---------------------------------|
A|---------------------------------|---------------------------------|
F|---------------------------------|---------------------------------|
C|---------------------------------|---------------------------------|
G|-5---5-5-5-5-5~----------5~------|-5---5-5-5-5-5~----------5~------|
C|-5---5-5-5-5-5~----------5~------|-5---5-5-5-5-5~----------5~------|
       . . . .                           . . . .

   1   &   2   &   3   &   4   &     1   &   2   &   3   &   4   &
D|---------------------------------|---------------------------------|
A|---------------------------------|---------------------------------|
F|---------------------------------|---------------------------------|
C|---------------------------------|---------------------------------|
G|-6---6-6-6-6-6~----------6~------|-6---6-6-6-6-6~----------6~------|
C|-6---6-6-6-6-6~----------6~------|-6---6-6-6-6-6~----------6~------|
       . . . .                           . . . .

   1   &   2   &   3   &   4   &     1   &   2   &   3   &   4   &
D|---------------------------------|---------------------------------|
A|---------------------------------|---------------------------------|
F|---------------------------------|---------------------------------|
C|---------------------------------|---------------------------------|
G|-8---8-8-8-8-8~----------8~------|-8---8---8---8---8---8---8---8---|
C|-8---8-8-8-8-8~----------8~------|-8---8---8---8---8---8---8---8---|
       . . . .

   1   &   2   &   3   &   4   &    
D|---------------------------------|
A|---------------------------------|
F|---------------------------------| (There's overlap between this final
C|-0~------------------------------|    open chord and the pre-chorus)
G|-0~------------------------------|
C|-0~------------------------------|

Guitar 2

   1     &     2     &     3     &     4     &       1     &     2     &     3     &     4     &
D|-------------------------------------------------|-------------------------------------------------|
A|-13-10-11-13-11-10-13-10-11-13-11-10-13-10-11-13-|-11-10-14-11-13-14-13-11-14-11-13-14-13-11-14-11-|
F|-------------------------------------------------|-------------------------------------------------|
C|-------------------------------------------------|-------------------------------------------------|
G|-------------------------------------------------|-------------------------------------------------|
C|-------------------------------------------------|-------------------------------------------------|

   1     &     2     &     3     &     4     &       1     &     2     &     3     &     4     &
D|-------------------------------------------------|-10-14-11-10-------------------------------------|
A|-13-10-11-13-11-10-13-10-11-13-11-10-10-11-13-13-|-------------13-11-10----------------------------|
F|-------------------------------------------------|----------------------12-11~---------------------|
C|-------------------------------------------------|-------------------------------------------------|
G|-------------------------------------------------|-------------------------------------------------|
C|-------------------------------------------------|-------------------------------------------------|

Guitar 3 Harmony

   1     &     2     &     3     &     4     &       1     &     2     &     3     &     4     &
D|-------------------------------------------------|-------------------------------------------------|
A|-10-7--8--10-8--7--10-7--8--10-8--7--10-7--8--10-|-8--7--11-8--10-11-10-8--11-8--10-11-10-8--11-8--|
F|-------------------------------------------------|-------------------------------------------------|
C|-------------------------------------------------|-------------------------------------------------|
G|-------------------------------------------------|-------------------------------------------------|
C|-------------------------------------------------|-------------------------------------------------|

   1     &     2     &     3     &     4     &       1     &     2     &     3     &     4     &
D|-------------------------------------------------|-6--10-9--6--------------------------------------|
A|-10-7--8--10-8--7--10-7--8--10-8--7--7--8--10-10-|-------------10-8--7-----------------------------|
F|-------------------------------------------------|----------------------8--7~----------------------|
C|-------------------------------------------------|-------------------------------------------------|
G|-------------------------------------------------|-------------------------------------------------|
C|-------------------------------------------------|-------------------------------------------------|

Guitar 2

   1     &     2     &     3     &     4     &         1     &     2     &     3     &     4     &
D|---------------------------------------------------|-------------------------------------------------|
A|-13^15~------------13p11h13~---------------11h13p11|-10-------11-------13----11-------10-------------|
F|---------------------------------------------------|-------------------------------------------12----|
C|---------------------------------------------------|-------------------------------------------------|
G|---------------------------------------------------|-------------------------------------------------|
C|---------------------------------------------------|-------------------------------------------------|

   1     &     2     &     3     &     4     &       1     &     2     &     3     &     4     &
D|-------------------------------------------------|-------------------------------------------------|
A|----------7--------8-----7-----------------------|-------------------------------------------------|
F|-8--------------------------------8--------7-----|-5-----------------------------------------------|
C|-------------------------------------------------|----------8--------7-----5*~---------------------|
G|-------------------------------------------------|-------------------------------------------------|
C|-------------------------------------------------|-------------------------------------------------|
                                             .       .        .        .    

Guitar 3 Harmony

   1     &     2     &     3     &     4     &         1     &     2     &     3     &     4     &
D|---------------------------------------------------|-------------------------------------------------|
A|-10^12~------------10p8-h10~---------------8-h10p8-|-7--------8--------10----8--------7--------------|
F|---------------------------------------------------|-------------------------------------------8-----|
C|---------------------------------------------------|-------------------------------------------------|
G|---------------------------------------------------|-------------------------------------------------|
C|---------------------------------------------------|-------------------------------------------------|

   1     &     2     &     3     &     4     &       1     &     2     &     3     &     4     &
D|-------------------------------------------------|-------------------------------------------------|
A|-------------------------------------------------|-------------------------------------------------|
F|-5--------7--------8-----7--------5--------------|-------------------------------------------------|
C|-------------------------------------------8-----|-7--------5--------4-----------------------------|
G|-------------------------------------------------|-------------------------------------------------|
C|-------------------------------------------------|-------------------------------------------------|
                                             .       .        .        .    

Guitar 2 (No Guitar 3 Harmony)

   1     &     2     &     3     &     4     &       1     &     2     &     3     &     4     &
D|----------------------------13-15-16-15-13----13-|-15-16-15-13----13-15-16-15-13----13-15-16-15-13-|
A|----------13-14-15-13-14-15----------------15----|-------------15----------------15----------------|
F|-11-13-14----------------------------------------|-------------------------------------------------|
C|-------------------------------------------------|-------------------------------------------------|
G|-------------------------------------------------|-------------------------------------------------|
C|-------------------------------------------------|-------------------------------------------------|

   1     &     2     &     3     &     4     &       1     &     2     &     3     &     4     &
D|----13-15-16-15-13----13-15-16-15-13----13-15-16-|-13-16^17~---------16-13-16~---------------------|
A|-15----------------15----------------15----------|-------------------------------------------------|
F|-------------------------------------------------|-------------------------------------------------|
C|-------------------------------------------------|-------------------------------------------------|
G|-------------------------------------------------|-------------------------------------------------|
C|-------------------------------------------------|-------------------------------------------------|

Guitar 2

   1     &     2     &     3     &     4     &       1     &     2     &     3     &     4     &  
D|-------------------------------------------------|-------------------------------------------------|
A|-13-10-11-13-11-10----------------10-11-13-11-10-|-14-11-13-14-13-11----------------11-13-14-13-11-|
F|-------------------12-11-8--11-12----------------|-------------------14-12-11-12-14----------------|
C|-------------------------------------------------|-------------------------------------------------|
G|-------------------------------------------------|-------------------------------------------------|
C|-------------------------------------------------|-------------------------------------------------|

   1     &     2     &     3     &     4     &       1     &     2     &     3     &     4     &  
D|----------------------------10-11-14-11-10----10-|-------------------------------------------------|
A|----------10-11-13-10-11-13----------------13----|-13-11-10----13-11-10----------------------------|
F|-8--11-12----------------------------------------|----------12----------12-11~---------------------|
C|-------------------------------------------------|-------------------------------------------------|
G|-------------------------------------------------|-------------------------------------------------|
C|-------------------------------------------------|-------------------------------------------------|

Guitar 3 Harmony

   1     &     2     &     3     &     4     &       1     &     2     &     3     &     4     &  
D|-------------------------------------------------|-------------------------------------------------|
A|-10-7--8--10-8--7-----------------7--8--10-8--7--|-11-8--10-11-10-8-----------------8--10-11-10-8--|
F|-------------------8--7--5--7--8-----------------|-------------------11-8--7--8--11----------------|
C|-------------------------------------------------|-------------------------------------------------|
G|-------------------------------------------------|-------------------------------------------------|
C|-------------------------------------------------|-------------------------------------------------|

   1     &     2     &     3     &     4     &       1     &     2     &     3     &     4     &  
D|----------------------------6--9--10-9--6-----6--|-------------------------------------------------|
A|----------7--8--10-7--8--10----------------10----|-10-8--7-----10-8--7-----------------------------|
F|-5--7--8-----------------------------------------|----------8-----------8--7~----------------------|
C|-------------------------------------------------|-------------------------------------------------|
G|-------------------------------------------------|-------------------------------------------------|
C|-------------------------------------------------|-------------------------------------------------|

Guitar 2 (No Guitar 3 Harmony)

   1     &     2     &     3     &     4     &       1     &     2     &     3     &     4     &  
D|-13----------------13----------------13----------|-------13----------------13~~~~------13~~~~------|
A|-16^18-------------16^18-------------16^18-------|-------16^18-------------16^18~------16^18~------|
F|-------------------------------------------------|-------------------------------------------------|
C|-------------------------------------------------|-------------------------------------------------|
G|-------------------------------------------------|-------------------------------------------------|
C|-------------------------------------------------|-------------------------------------------------|

   1     &     2     &     3     &     4     &       1     &     2     &     3     &     4     &  
D|-15----------------15----------------15----------|-------15----------------15~~~~------15~~~~------|
A|-18^20-------------18^20-------------18^20-------|-------18^20-------------18^20~------18^20~------|
F|-------------------------------------------------|-------------------------------------------------|
C|-------------------------------------------------|-------------------------------------------------|
G|-------------------------------------------------|-------------------------------------------------|
C|-------------------------------------------------|-------------------------------------------------|

   1     &     2     &     3     &     4     &       1     &     2     &     3     &     4     &  
D|-16----------------16----------------16----------|-------16---db\\\\\\\\\\\\\\\\\\\\\\\\\\\\\\\\\\\|
A|-19^21-------------19^21-------------19^21-------|-------19^21db\\\\\\\\\\\\\\\\\\\\\\\\\\\\\\\\\\\|
F|-------------------------------------------------|-------------------------------------------------|
C|-------------------------------------------------|-------------------------------------------------|
G|-------------------------------------------------|-------------------------------------------------|
C|-------------------------------------------------|-------------------------------------------------|

Guitar 2

   1     &     2     &     3     &     4     &       1     &     2     &     3     &     4     &  
D|----------------------------11-14-15-14-11----11-|----------------11-14-15-14-11----11-14-15-14-11-|
A|----------11-13-15-11-13-15----------------15----|-15-13-11-13-15----------------15----------------|
F|-11-12-14----------------------------------------|-------------------------------------------------|
C|-------------------------------------------------|-------------------------------------------------|
G|-------------------------------------------------|-------------------------------------------------|
C|-------------------------------------------------|-------------------------------------------------|

   1   &   2   &   3   &   4   &    
D|---------------------------------|
A|-15~-----------------------------|
F|---------------------------------| (More overlap)
C|---------------------------------|
G|---------------------------------|
C|---------------------------------|

Guitar 3 Harmony

   1     &     2     &     3     &     4     &       1     &     2     &     3     &     4     &  
D|----------------------------8--10-11-10-8-----8--|----------------8--10-11-10-8-----8--10-11-10-8--|
A|----------8--10-11-8--10-11----------------11----|-11-10-8--10-11----------------11----------------|
F|-7--8--11----------------------------------------|-------------------------------------------------|
C|-------------------------------------------------|-------------------------------------------------|
G|-------------------------------------------------|-------------------------------------------------|
C|-------------------------------------------------|-------------------------------------------------|

   1   &   2   &   3   &   4   &    
D|-10~-----------------------------|
A|---------------------------------|
F|---------------------------------| (More overlap)
C|---------------------------------|
G|---------------------------------|
C|---------------------------------|



Pre Chorus 
(3:34 - 3:45)

Chorus 
(3:45 - 4:08)
Note: the final bars of the chorus change and are as follows...

Guitar 1

   1   &   2   &   3   &   4   &     1   &   2   &   3   &   4   &
D|---------------------------------|---------------------------------|
A|---------------------------------|---------------------------------|
F|---------------------------------|---------------------------------|
C|---------------------------------|---------------------------------|
G|-------------6-------3---5~------|---------------------------------|
C|-0---0-0-0-----------------------|-5~------6~------3~------5~------|
   .   . . .
Our army of...                       An army of...

   1    &   2    &   3    &   4    &    
D|-------------------------------------|
A|-------------------------------------|
F|-------------------------------------|
C|-------------------------------------|
G|-------------------------------------|
C|-5--5--5--6--6--6--3--3--3--1--1--1--|
   .  .  .  .  .  .  .  .  .  .  .  .
ARMY OF...


Guitar 2

   1   &   2   &   3   &   4   &     1   &   2   &   3   &   4   &
D|---------------------------------|---------------------------------|
A|---------------------------------|---------------------------------|
F|---------------------------------|---------------------------------|
C|---------------------------------|---------------------------------|
G|-------------6-------3---5~------|---------------------------------|
C|-0---0-0-0-----------------------|-7~------8~------10~-----12~-----|
   .   . . .
Our army of...                       An army of...

   1    &   2    &   3    &   4    &    
D|-------------------------------------|
A|-------------------------------------|
F|-------------------------------------|
C|-------------------------------------|
G|-------------------------------------|
C|-5--5--5--6--6--6--3--3--3--1--1--1--|
   .  .  .  .  .  .  .  .  .  .  .  .
ARMY OF...

Outro 
(4:08 - 4:18)

Guitar 1

   1   &   2   &   3   &   4   &     1   &   2   &   3   &   4   &
D|---------------------------------|---------------------------------|
A|---------------------------------|---------------------------------|
F|---------------------------------|---------------------------------|
C|-0~------------------------------|(0)------------------------------|
G|-0~------------------------------|(0)------------------------------|
C|-0~------------------------------|(0)------------------------------|

NOISE!

   1   &   2   &   3   &   4   &     1   &   2   &   3   &   4   &
D|---------------------------------|---------------------------------|
A|---------------------------------|---------------------------------|
F|---------------------------------|---------------------------------|
C|(0)------------------------------|(0)------------------------------|
G|(0)------------------------------|(0)------------------------------|
C|(0)------------------------------|(0)--------------3~------5~------|

Guitar 2

   1   &   2   &   3   &   4   &     1   &   2   &   3   &   4   &
D|---------------------------------|---------------------------------|
A|---------------------------------|---------------------------------|
F|---------------------------------|---------------------------------|
C|---------------------------------|---------------------------------|
G|---------------------------------|---------------------------------|
C|-7p0-0-0-0-0-0-0-0-0-0-0-0-0-7p0h|-6p0-0-0-0-0-0-0-0-0-0-0-0-0-3p0h|
       . . . . . . . . . . . .           . . . . . . . . . . . .  
NOISE!
      
   1   &   2   &   3   &   4   &     1   &   2   &   3   &   4   &
D|---------------------------------|---------------------------------|
A|---------------------------------|---------------------------------|
F|---------------------------------|---------------------------------|
C|---------------------------------|---------------------------------|
G|---------------------------------|---------------------------------|
C|-2p0-0-0-0-0-0-0-0-0-0-0-0-0-7p0h|-6p0-0-0-0-0-0-0-8~------10~-----|
       . . . . . . . . . . . .           . . . . . .   


************************************

| h    Hammer-on
| p    Pull-off
| .    Staccato
| \    Slide down
| ~    Vibrato
| x    Dead note
| (n)  Ghost note

************************************

            
            
Suggest correction
Creating personal tab
Creating personal tab
You can edit any tab online and save it as your Personal.

You can edit, replace or remove any tab part or add personal notes – all changes will be seen only by you.

Personal tabs can be accessed anytime from any device, even offline.
Learn more »
comments
print report bad tab
guest
You may want to rate the tab now too:
select rating
Wanna post a correction for this tab? Suggest correction