Oops, an error
Loading. Please wait.

Ashes Of The Innocent Tab

version 1
version 1

Solo

Whole song

Interactive

5,321 views 3 this week
no commentswrite comment
1 2 3 4 5
x 4
add to favorites
launch autoscroll
font size
0
reset
how to read this tab
guitar tuner
Autoscroll
slow
fast
+/-
esc
set tempo
stop
Help us to improve Ultimate-Guitar.com Take our survey!
×
Author
Difficulty
Tuning
intermediate
C G C F A D
Im doing a tab of all the solo put together, as it's quite difficult to tab and 
the other tabs are in different places, hope this helps.

D|-----------------------------------------|
A|----------------------12h14-12h14-14b~---|
F|7v~~-11h13-11h13-13b~--------------------|
C|-----------------------------------------|
G|-----------------------------------------|
C|-----------------------------------------|


D|--------------------------------------------------------------| 
A|-------------------------------------------12h14h15-15h17h19--| 
F|--------------------------11h14h15-11h14h15-------------------| 
C|----------------11h12h14-11h12h14-----------------------------| 
G|11h12h14-11h12h14---------------------------------------------| 
C|--------------------------------------------------------------|

                                                    |        |
D|19b~~19~-19*b~19-16-15h16p15-15-15-16-16-16-18-18-|15-16-18|   x5
A|--------------------------------------------------|        |
F|-----------------------------------------------------------|
C|-----------------------------------------------------------|
G|-----------------------------------------------------------|
C|-----------------------------------------------------------|

D|--------------------------------------------------------16b----17b-|
A|14x3-17b-14x3-17b-14x3-17b-14x3-17b-14x3---14x3-17b-14x3---14x3----|
F|----------------------------------------16b------------------------|
C|-------------------------------------------------------------------|
G|-------------------------------------------------------------------|
C|-------------------------------------------------------------------|

D|19b+v~-17-16~-21-19-17-16-----------------|
A|-------------------------21-19-17---------|
F|---------------------------------18-16v~~-|
C|------------------------------------------|
G|------------------------------------------|
C|------------------------------------------|

D|-------------------------------------------------|
A|-------------------------------------------------|
F|/6~~/4-6-7~~-6~-6h7-4~-2-4-/6~-4~-2~-/4-6-7~-6~~~|
C|-------------------------------------------------|
G|-------------------------------------------------|
C|-------------------------------------------------|

Enjoy and leave comments please!

Tablature Legend
/ = Slide up
~ = slight vibrato
v = vibrato (obviously LOL)
b = bend
Suggest correction
comments
print report bad tab
guest
You may want to rate the tab now too:
select rating
Wanna post a correction for this tab? Suggest correction