Oops, an error
Loading. Please wait.

Ashes Of The Innocent Tab

version 1
version 1

Whole song

Interactive

13,715 views 18 this week
3 commentsread comments
1 2 3 4 5
excellent!
x 5
add to favorites
launch autoscroll
font size
0
reset
how to read this tab
guitar tuner
Tab Pro tools
  • play this tab
  • loop segment
  • change instrument
  • show fretboard
  • metronome
×
Best way to learn
"Ashes Of The Innocent"
Autoscroll
slow
fast
+/-
esc
set tempo
stop
Contributor
Intro/Verse guitar 1 & 2
d|---------------------------------------------------------------|
a|---------------------------------------------------------------|
f|---------------------------------------------------------------|
C|----7----6-------------------------7----6----------------------|
G|---------------7-----7-----7-9----------------7-----7-----7-9-5|
C|4-4--4-4---4-4---4-4---4-4-----4-4--4-4---4-4---4-4---4-4------|

 then guitar 2 
d|----------------------------------------------------------------|
a|----------------------------------------------------------------|
f|----------------------------------------------------------------|
C|----7----6-------------------------7----6----11-9----9-11~------|
G|---------------7-----7-----7-9--------------------12------12~---|
C|0-0--0-0---0-0---0-0---0-0-----0-0--0-0---0-0-------------------|

  and guitar 1
d|----------------------------------------------------------------|
a|----------------------------------------------------------------|
f|----------------------------------------------------------------|
C|----7----6-------------------------7---6------9-7----7-9~-------|
G|---------------7-----7-----7-9--------------------10-----10~----|
C|4-4--4-4---4-4---4-4---4-4-----4-4--4-4---0-0-------------------| x3

Chorus
d|--------------------------------------------------------| 
a|77-7-77-7-7-77-77-77-7-77-7-7-77-77-33-3-3-33-3-33-33-3-|
f|44-4-46-6-6-66-66-44-4-46-6-6-66-66-22-2-2-22-2-22-22-2-|
C|44-4-44-4-4-44-44-44-4-44-4-4-44-44-00-0-0-00-0-00-00-0-|
G|44-4-44-4-4-44-44-44-4-44-4-4-44-44-00-0-0-00-0-00-00-0-|
C|44-4-44-4-4-44-44-44-4-44-4-4-44-44-00-0-0-00-0-00-00-0-|

d|---------------------|
a|55-5-5-55-5-55-55-5~-|
f|44-4-4-44-4-44-44-4~-|
C|22-2-2-22-2-22-22-2~-|
G|22-2-2-22-2-22-22-2~-|
C|22-2-2-22-2-22-22-2~-|

Verse (x3)

Chorus
d|--------------------------------------------------------| 
a|77-7-77-7-7-77-77-77-7-77-7-7-77-77-33-3-3-33-3-33-33-3-|
f|44-4-46-6-6-66-66-44-4-46-6-6-66-66-22-2-2-22-2-22-22-2-|
C|44-4-44-4-4-44-44-44-4-44-4-4-44-44-00-0-0-00-0-00-00-0-|
G|44-4-44-4-4-44-44-44-4-44-4-4-44-44-00-0-0-00-0-00-00-0-|
C|44-4-44-4-4-44-44-44-4-44-4-4-44-44-00-0-0-00-0-00-00-0-|

d|--------------------|
a|55-5-5-55-5-55-55-5-|
f|44-4-4-44-4-44-44-4-|
C|22-2-2-22-2-22-22-2-|
G|22-2-2-22-2-22-22-2-|
C|22-2-2-22-2-22-22-2-|

d|--------------------------------------------------------| 
a|77-7-77-7-7-77-77-77-7-77-7-7-77-77-33-3-3-33-3-33-33-3-|
f|44-4-46-6-6-66-66-44-4-46-6-6-66-66-22-2-2-22-2-22-22-2-|
C|44-4-44-4-4-44-44-44-4-44-4-4-44-44-00-0-0-00-0-00-00-0-|
G|44-4-44-4-4-44-44-44-4-44-4-4-44-44-00-0-0-00-0-00-00-0-|
C|44-4-44-4-4-44-44-44-4-44-4-4-44-44-00-0-0-00-0-00-00-0-|

d|---------------------|
a|55-5-5-55-5-55-55-5~-|
f|44-4-4-44-4-44-44-4~-|
C|22-2-2-22-2-22-22-2~-|
G|22-2-2-22-2-22-22-2~-|
C|22-2-2-22-2-22-22-2~-|

(Chorus alteration)
d|---------------------------------------------------------------| 
a|-------77-7-77-7-7-77-77-77-7-77-7-7-77-77-33-3-3-33-3-33-33-3-|
f|-------44-4-46-6-6-66-66-44-4-46-6-6-66-66-22-2-2-22-2-22-22-2-|
C|44-4-4-44-4-44-4-4-44-44-44-4-44-4-4-44-44-00-0-0-00-0-00-00-0-|
G|44-4-4-44-4-44-4-4-44-44-44-4-44-4-4-44-44-00-0-0-00-0-00-00-0-|
C|44-4-4-44-4-44-4-4-44-44-44-4-44-4-4-44-44-00-0-0-00-0-00-00-0-|
  .. . .
d|---------------------|
a|55-5-5-55-5-55-55-5~-|
f|44-4-4-44-4-44-44-4~-|
C|22-2-2-22-2-22-22-2~-|
G|22-2-2-22-2-22-22-2~-|
C|22-2-2-22-2-22-22-2~-| x2

Solo (unfortunately havnt figured it all out)

Verse (x2)

Pre-Chorus(?) (dont know)

Chorus x3

Guitar 1       Guitar 2
d|--------|   f|--------|
a|--------|   a|--------|
f|-6-7-8~-|   d|-6-5-3~-|
C|-x-x-x--|   C|-x-x-x--|
G|-4-5-6~-|   G|-4-3-1~-|
C|--------|   C|--------|

Add feedback then 5th fret harmonic on the f string with feedback 
and thats it...this tab is atleast 90% correct and some is from the 
guitar pro version that i remembered when i had gp     
comments
print report bad tab
3 comments total.
+1 reply
Disappear wrote on January 23 2009, 04:43 pm

Here's some of the solo iv figured out so far..its the second half or so but yea..im sure u can put the pieces together
d|---------------------------------------------------------------|
a|--------------------------------------------12h14h15-15h17h19--|
f|--------------------------11h14h15-11h14h15--------------------|
C|--------11h12h14-11h12h14--------------------------------------|
G|11h12h14-------------------------------------------------------|
C|---------------------------------------------------------------|

d|16h17h19-19b-17-21b-19-1716-16-16-16-17-17-17-19-19-|16-17-19-x5|

Bend the 17's
a|17-1717-14-17-1717-14-17-1717-14-17-1717-14-----1717-14-17-16b--|
f|--------------------------------------------16b-----------------|

d|-----16b-|
a|17b17b---|

Thats all that i know that is correct...ill post more when its worked out

+1 reply
Disappear wrote on January 23 2009, 04:46 pm

Made a mistake..sorry
Bend the 17's
a|17-1717-14-17-1717-14-17-1717-14-17-1717-14-----1717-14-17-16b--|
f|--------------------------------------------16b-----------------|

i meant:
Bend the 17's
d|-----------------------------------------------------------16b--|
a|17-1717-14-17-1717-14-17-1717-14-17-1717-14-----1717-14-17------|
f|--------------------------------------------16b-----------------|

+1 reply
Disappear wrote on January 23 2009, 04:54 pm

Ugh!...ignore that last bit and drop the last 16b at this part

Bend the 17's
a|17-1717-14-17-1717-14-17-1717-14-17-1717-14-----1717-14-17-16b--|
f|--------------------------------------------16b-----------------|

and add:
d|---------16b|
a|1717-14-----|

before:
d|-----16b-|
a|17b17b---|

sorry if all this is confusing..im trying to make it as clear as possible

I want to post or [tab]
guest
You may want to rate the tab now too:
select rating
Please do not post tabs as comments. Select "correction" instead!