Oops, an error
Loading. Please wait.

Bittersweet Memories Tab

version 1
version 1

Whole song

Interactive

42,249 views 3 this week
6 commentsread comments
1 2 3 4 5
x 5
add to favorites
launch autoscroll
font size
0
reset
how to read this tab
guitar tuner
Autoscroll
slow
fast
+/-
esc
set tempo
stop
Help us to improve Ultimate-Guitar.com Take our survey!
×
Author
Difficulty
Tuning
intermediate
C G C F A D
-------------------------------------------------------------------------------
             Bittersweet Memories - Bullet For My Valentine
-------------------------------------------------------------------------------
Tabbed by:Adudeduh      
Email:adudeduh@aol.com

Tuning:Drop C



Intro Lead(not sure about this part)
D|---------------------------------------------------------------------------|
A|-9h10p9p7-8~--9h10p9p7-----9h10p9h10-10b--9h10p9p7------/10----------------|
F|-----------------------9~--------------------------9~----------------------|
c|---------------------------------------------------------------------------|
G|---------------------------------------------------------------------------|
C|---------------------------------------------------------------------------|

D|---------------------------------------------------------------------------|
A|-9h10p9p7-8~--9h10p9p7-----9h10p9h10-10b--9h10p9p7-------------------------|
F|-----------------------9~--------------------------9~---7-7~---------------|
c|---------------------------------------------------------------------------|
G|---------------------------------------------------------------------------|
C|---------------------------------------------------------------------------|
         


Intro Rhythm(Only The Pattern)

D|---------------------------------------------------------------------------|
A|---------------------------------------------------------------------------|
F|---------------------------------------------------------------------------|
c|-3-0-8-10------------------------------------------------------------------|
G|-3-0-8-10------------------------------------------------------------------|
C|-3-0-8-10------------------------------------------------------------------|


Yet To Figure Out Verse...



Prechorus(I just put the pattern. I'm sure you can figure out the strumming)

D|---------------------------------------------------------------------------|
A|---------------------------------------------------------------------------|
F|-10----------------10-9-7--------10-9--7---10----------------5-7-9-10------|
c|-x-weird strumming-x--x-x-0000~--x--x--x---x-weird strumming-x-x-x-x-------|
G|-8-----------------8--7-5-0000~--8--7--5---8-----------------3-5-7-8-------|
C|--------------------------0000~--------------------------------------------|
                            ...                               x4x4x4x1
                     


Chorus-Both Guitars(you get the idea)

D|---------------------------------------------------------------------------|
A|---------------------------------------------------------------------------|
F|---------------------------------------------------------------------------|
c|-3-0-8---------------------------------------------------------------------|
G|-3-0-8---------------------------------------------------------------------|
C|-3-0-8---------------------------------------------------------------------|


Solo Type Thing

D|---------------------------------------------------------------------------|
A|-5556665556661111-1010101111118881010106666-5556665556661111---------------|
F|---------------------------------------------------------------------------|
c|---------------------------------------------------------------------------|
G|---------------------------------------------------------------------------|
C|---------------------------------------------------------------------------|

D|----------------------------|----------------------------------------------|
A|-10-11-10-8-10-8-6-8-6-6~---|--10-11-10-8-10-8-6-8-6-5-6-8-6~--------------|
F|----------------------------|----------------------------------------------|
c|----------------------------|----------------------------------------------|
G|----------------------------|----------------------------------------------|
C|----------------------------|----------------------------------------------|
       1st ending                            2nd ending


Rhythm For Solo(Again, Just The Pattern)
D|---------------------------------------------------------------------------|
A|---------------------------------------------------------------------------|
F|---------------------------------------------------------------------------|
c|-0-8-3-10------------------------------------------------------------------|
G|-0-8-3-10------------------------------------------------------------------|
C|-0-8-3-10------------------------------------------------------------------|

Bridge

D|---------------------------------------------------------------------------|
A|---------------------------------------------------------------------------|
F|---------------------------------------------------------------------------|
c|-3~--3~---3----------------------------------------------------------------|
G|-3~--3~---3----------------------------------------------------------------|
C|-3~--3~---3----------------------------------------------------------------|
            .(Lots of PM's)


************************************

| /   slide up
| \   slide down
| h   hammer-on
| p   pull-off
| ~   vibrato
| +   harmonic
| x   Mute note
| b   Bend
| pb  Pre-bend
| br  Bend release
| pbr Pre-bend release
| brb Bend release bend

************************************
Suggest correction
comments
print report bad tab
6 comments total. Showing first comments.
0 reply
Arkentera666 10 Apr 30, 2010 04:54 PM

Pm me for the 100% correct tabs ug is taking to long to put mine up.

0 reply
royturner23 1,507 Apr 30, 2010 08:40 PM

sorry it's incomplete. its just bits and pieces. 3 stars

-1 reply
Arkentera666 10 Apr 30, 2010 10:38 PM

Kind of messed up you didnt give me credit for giving you these tabs.

guest
You may want to rate the tab now too:
select rating
Wanna post a correction for this tab? Suggest correction