Oops, an error
Loading. Please wait.
We have an official Bittersweet Memories tab made by UG professional guitarists. Check out the tab »
×
128,389 views 90 this week
18 commentsread comments
1 2 3 4 5
x 47
add to favorites
×
Save as Personal and add changes to this tab that will be seen only by you. Learn more ›
×
You can save this tab as Personal to edit and correct it or add notes. All changes will be seen only by you. Learn more »
launch autoscroll
font size
0
reset
how to read this tab
guitar tuner
backing track
0:00
0:00
edit
Autoscroll
slow
fast
+/-
esc
set tempo
stop
Bittersweet Memories
Bullet For My Valentine
Fever
Drop C- CGCFAD


[Intro]

Matt
D|------------------------------------------------|
A|-8-10-8----8~~~~~~~~~~~~-8-10-8-----------------|
F|--------10----------------------10-9~~~~~~~~~~~~|
C|------------------------------------------------|
G|------------------------------------------------|
C|------------------------------------------------|
Padge
D|------------------------------------------------|
A|------------------------------------------------|
F|------------------------------------------------|
C|-3-3-3-3~-3~-3-3-3-3~-3~-0-0-0-0~-0~-0-0-0-0~-0~|
G|-3-3-3-3~-3~-3-3-3-3~-3~-0-0-0-0~-0~-0-0-0-0~-0~|
C|-3-3-3-3~-3~-3-3-3-3~-3~-0-0-0-0~-0~-0-0-0-0~-0~|
Gtr 3
D|------------------------------------------------|
A|-5-6--5----5~~~~~~~~~~~~-5-6--5-----------------|
F|--------7-----------------------7--5~~~~~~~~~~~~|
C|------------------------------------------------|
G|------------------------------------------------|
C|------------------------------------------------|

Matt
D|------------------------------------------------|
A|-8-10-8-10b===========r~-8-10-8-----------10~~~~|
F|--------------------------------10-9~~~~~-------|
C|------------------------------------------------|
G|------------------------------------------------|
C|------------------------------------------------|
Padge
D|------------------------------------------------|
A|------------------------------------------------|
F|-3-3-3-3~-3~-3-3-3-3~-3~-5-5-5-5~-5~-5-5-5-5~-5~|
C|-3-3-3-3~-3~-3-3-3-3~-3~-5-5-5-5~-5~-5-5-5-5~-5~|
G|-1-1-1-1~-1~-1-1-1-1~-1~-3-3-3-3~-3~-3-3-3-3~-3~|
C|------------------------------------------------|
Gtr 3
D|------------------------------------------------|
A|-5-6--5--6b===========r~-5-6--5-----------6~~~~~|
F|--------------------------------7--5~~~~~-------|
C|------------------------------------------------|
G|------------------------------------------------|
C|------------------------------------------------|

Matt
D|------------------------------------------------|
A|-8-10-8----8~~~~~~~~~~~~-8-10-8-----------------|
F|--------10----------------------10-9~~~~~~~~~~~~|
C|------------------------------------------------|
G|------------------------------------------------|
C|------------------------------------------------|
Padge
D|------------------------------------------------|
A|------------------------------------------------|
F|------------------------------------------------|
C|-3-3-3-3~-3~-3-3-3-3~-3~-0-0-0-0~-0~-0-0-0-0~-0~|
G|-3-3-3-3~-3~-3-3-3-3~-3~-0-0-0-0~-0~-0-0-0-0~-0~|
C|-3-3-3-3~-3~-3-3-3-3~-3~-0-0-0-0~-0~-0-0-0-0~-0~|
Gtr 3
D|------------------------------------------------|
A|-5-6--5----5~~~~~~~~~~~~-5-6--5-----------------|
F|--------7-----------------------7--5~~~~~~~~~~~~|
C|------------------------------------------------|
G|------------------------------------------------|
C|------------------------------------------------|

Matt
D|------------------------------------------------|
A|-8-10-8-10b===========r~-8-10-8-----------------|
F|--------------------------------10-9~~~~~\7-7~~~|
C|------------------------------------------------|
G|------------------------------------------------|
C|------------------------------------------------|
Padge
D|------------------------------------------------|
A|------------------------------------------------|
F|-3-3-3-3~-3~-3-3-3-3~-3~-5-5-5-5~-5~-5-5-5-5~-5~|
C|-3-3-3-3~-3~-3-3-3-3~-3~-5-5-5-5~-5~-5-5-5-5~-5~|
G|-1-1-1-1~-1~-1-1-1-1~-1~-3-3-3-3~-3~-3-3-3-3~-3~|
C|------------------------------------------------|
Gtr 3
D|------------------------------------------------|
A|-5-6--5--6b===========r~-5-6--5-----------------|
F|--------------------------------7--5~~~~~/7-7~~~|
C|------------------------------------------------|
G|------------------------------------------------|
C|------------------------------------------------|

Matt
D|-----------------------------------------------------------|
A|-----------------------------------------------------------|
F|~~~~~~~~~~~~~~~~~~~~~~~~~~~~~~~~~~~~~~~~~~~~---------------|
C|-----------------------------------------------------------|
G|-----------------------------------------------------------|
C|-----------------------------------------------------------|
Padge
D|---------0------------------------------0------------------|
A|-----6-----6------------------------6-----6----------------|
F|---5---5-----5--------------------5---5-----5--------------|
C|-----------------------------------------------------------|
G|-----------------------------------------------------------|
C|-0------------------------------0--------------------------|
Gtr 3
D|-----------------------------------------------------------|
A|-----------------------------------------------------------|
F|-----------------------------------------------------------|
C|-0~~~~~~~~~~~~~~~~~~~~~~~~~~~~~~~~~~~~~~~~~~~--------------|
G|-0~~~~~~~~~~~~~~~~~~~~~~~~~~~~~~~~~~~~~~~~~~~--------------|
C|-0~~~~~~~~~~~~~~~~~~~~~~~~~~~~~~~~~~~~~~~~~~~--------------|


[Verse]

D||----------0-------------------------------------0-----------------------------|
A||o-----6-----6-------------------------------6-----6---------------------------|
F||----5---5-----5---------------------------5---5-----5-------------------------|
C||------------------------------------------------------------------------------|
G||o-----------------------------------------------------------------------------|
C||--0-------------------------------------0-------------------------------------|
-"You turn me off at the push of a button, and you pretend that I don't mean nothin'
-You like to scream use words as a weapon, well go ahead, take your best shot woman

D|---------0-------------------------------------0----------------------0---------||
A|-----6-----6-------------------------------6-----6----------------------6------o||
F|---5---5-----5---------------------------5---5-----5----------------------5-----||
C|--------------------------------------------------------------------------------||
G|-3-------------------------------------0---------------------------------------o||
C|--------------------------------------------------------------------------------||
...I'm not a saint, that's easy to tell, but guess what honey, you ain't no angel
...I wanna leave you, it's easy to see, but guess what honey, it's not that easy"


[Pre Chorus]
Matt & Padge
D|-----------------------------------------------------------------------|
A|-----------------------------------------------------------------------|
F|-10-10-10-10~-1010-10-10-10~-10~~--------------------------------------|
C|--x--x--x--x---x-x--x--x--x---x---------0~~----------------------------|
G|--8--8--8--8~--8-8--8--8--8~--8br-0-0-0-0~~-8p0-----7p0----5p0-----3p0-|
C|----------------------------------0-0-0-0~~-----0-0----0-0-----0-0-----|
                                    - - -         - -    - -     - -
                   "Wee get so complicateeeed! (COMPLICATEEEED!!!)

Matt
D|-------------------------------------------------------|
A|-------------------------------------------------------|
F|-10-10-10-10~-1010-10-10-10~-10~~-5-5-5-5br~-5-5-5-5-5-|
C|--x--x--x--x---x-x--x--x--x---x---x-x-x-x----x-x-x-x-x-|
G|--8--8--8--8~--8-8--8--8--8~--8br-3-3-3-3br~-3-3-3-3-3-|
C|-------------------------------------------------------|
Padge
D|-------------------------------------------------------|
A|-------------------------------------------------------|
F|-10-10-10-10~-1010-10-10-10~-10~~-5-5-5-7-7-7-9-9-9-10-|
C|--x--x--x--x---x-x--x--x--x---x---x-x-x-x-x-x-x-x-x--x-|
G|--8--8--8--8~--8-8--8--8--8~--8br-3-3-3-5-5-5-7-7-7--8-|
C|-------------------------------------------------------|
...This finger's for our memooorrrieeess"


[Chorus]

Matt & Padge
D||----------------------------------------------------------|
A||o---------------------------------------------------------|
F||----------------------------------------------------------|
C||--3-3-3-3~~-3~~-3-3-3-3~~-3~~-3-3-3-3~~-3~~-3-3-3-3~~-3~~-|
G||o-3-3-3-3~~-3~~-3-3-3-3~~-3~~-3-3-3-3~~-3~~-3-3-3-3~~-3~~-|
C||--3-3-3-3~~-3~~-3-3-3-3~~-3~~-3-3-3-3~~-3~~-3-3-3-3~~-3~~-|
-"So rip my pictures from your wall, tear them down and burn them all
(SO RIIIIIIIIIIIIIIP!!!)
-Take the ashes from the floor, bury them to just make sure

D|----------------------------------------------------------||
A|---------------------------------------------------------o||
F|-----------------------------3-3-3-3~~-3~~-3-3-3-3~~-3~~--||
C|-0-0-0-0~~-0~~-0-0-0-0~~-0~~-3-3-3-3~~-3~~-3-3-3-3~~-3~~--||
G|-0-0-0-0~~-0~~-0-0-0-0~~-0~~-1-1-1-1~~-1~~-1-1-1-1~~-1~~-o||
C|-0-0-0-0~~-0~~-0-0-0-0~~-0~~------------------------------||
...Light the fire and walk away, there's nothing left to say, soo
...That nothing more is left of me, just Bittersweet Memoooories"

Matt
D|-----------------------------------------------------------|
A|-----------------------------------------------------------|
F|-----------------------------------------------------------|
C|-0~~~~~~~~~~~~~~~~~~~~~~~~~~~~~~~~-------------------------|
G|-0~~~~~~~~~~~~~~~~~~~~~~~~~~~~~~~~-------------------------|
C|-0~~~~~~~~~~~~~~~~~~~~~~~~~~~~~~~~-------------------------|
Padge
D|---------0------------------------------0------------------|
A|-----6-----6------------------------6-----6----------------|
F|---5---5-----5--------------------5---5-----5--------------|
C|-----------------------------------------------------------|
G|-----------------------------------------------------------|
C|-0------------------------------0--------------------------|
...Memoorriiiesss (Iiiiii)


[Verse]

D||----------0--------------------------------------0----------------------------|
A||o-----6-----6--------------------------------6-----6--------------------------|
F||----5---5-----5----------------------------5---5-----5------------------------|
C||------------------------------------------------------------------------------|
G||o-----------------------------------------------------------------------------|
C||--0--------------------------------------0------------------------------------|
-"I wanna run and escape from your prison, but when I leave I feel something is missin'
-You're like a drug that I can't stop takin', I want more and I can't stop cravin'

D|---------0--------------------------------------0----------------------0---------||
A|-----6-----6--------------------------------6-----6----------------------6------o||
F|---5---5-----5----------------------------5---5-----5----------------------5-----||
C|---------------------------------------------------------------------------------||
G|-3--------------------------------------0---------------------------------------o||
C|---------------------------------------------------------------------------------||
...I'm not afraid, that's easy to tell, this can't be heaven, it feels like I'm in hell
...I still want you, it's easy to see, but guess what honey, you're not that good for me"


[Pre Chorus]
Matt & Padge
D|-----------------------------------------------------------------------|
A|-----------------------------------------------------------------------|
F|-10-10-10-10~-1010-10-10-10~-10~~--------------------------------------|
C|--x--x--x--x---x-x--x--x--x---x---------0~~----------------------------|
G|--8--8--8--8~--8-8--8--8--8~--8br-0-0-0-0~~-8p0-----7p0----5p0-----3p0-|
C|----------------------------------0-0-0-0~~-----0-0----0-0-----0-0-----|
                                    - - -         - -    - -     - -
                   "Wee get so complicateeeed! (COMPLICATEEEEEEEED!!!)

Matt
D|-------------------------------------------------------|
A|-------------------------------------------------------|
F|-10-10-10-10~-1010-10-10-10~-10~~-5-5-5-5br~-5-5-5-5-5-|
C|--x--x--x--x---x-x--x--x--x---x---x-x-x-x----x-x-x-x-x-|
G|--8--8--8--8~--8-8--8--8--8~--8br-3-3-3-3br~-3-3-3-3-3-|
C|-------------------------------------------------------|
Padge
D|-------------------------------------------------------|
A|-------------------------------------------------------|
F|-10-10-10-10~-1010-10-10-10~-10~~-5-5-5-7-7-7-9-9-9-10-|
C|--x--x--x--x---x-x--x--x--x---x---x-x-x-x-x-x-x-x-x--x-|
G|--8--8--8--8~--8-8--8--8--8~--8br-3-3-3-5-5-5-7-7-7--8-|
C|-------------------------------------------------------|
...This finger's for our memooorrrieeess"


[Chorus]

Matt & Padge
D|--------------------------------------------------------|
A|--------------------------------------------------------|
F|--------------------------------------------------------|
C|-3-3-3-3~~-3~~-3-3-3-3~~-3~~-3-3-3-3~~-3~~-3-3-3-3~~-3~~|
G|-3-3-3-3~~-3~~-3-3-3-3~~-3~~-3-3-3-3~~-3~~-3-3-3-3~~-3~~|
C|-3-3-3-3~~-3~~-3-3-3-3~~-3~~-3-3-3-3~~-3~~-3-3-3-3~~-3~~|
-"So rip my pictures from your wall, tear them down and burn them all
(SO RIIIIIIIIIIIIIIP!!!)

D|--------------------------------------------------------|
A|--------------------------------------------------------|
F|-----------------------------3-3-3-3~~-3~~-3-3-3-3~~-3~~|
C|-0-0-0-0~~-0~~-0-0-0-0~~-0~~-3-3-3-3~~-3~~-3-3-3-3~~-3~~|
G|-0-0-0-0~~-0~~-0-0-0-0~~-0~~-1-1-1-1~~-1~~-1-1-1-1~~-1~~|
C|-0-0-0-0~~-0~~-0-0-0-0~~-0~~----------------------------|
...Light the fire and walk away, there's nothing left to say, soo

D|--------------------------------------------------------|
A|--------------------------------------------------------|
F|--------------------------------------------------------|
C|-3-3-3-3~~-3~~-3-3-3-3~~-3~~-3-3-3-3~~-3~~-3-3-3-3~~-3~~|
G|-3-3-3-3~~-3~~-3-3-3-3~~-3~~-3-3-3-3~~-3~~-3-3-3-3~~-3~~|
C|-3-3-3-3~~-3~~-3-3-3-3~~-3~~-3-3-3-3~~-3~~-3-3-3-3~~-3~~|
...Take the ashes from the floor, bury them to just make sure

D|-------------------------------------------------------|
A|-------------------------------------------------------|
F|-----------------------------3-3-3-3~~-3~~-------------|
C|-0-0-0-0~~-0~~-0-0-0-0~~-0~~-3-3-3-3~~-3~~-3-3-3-3-3-3-|
G|-0-0-0-0~~-0~~-0-0-0-0~~-0~~-1-1-1-1~~-1~~-1-1-1-1-1-1-|
C|-0-0-0-0~~-0~~-0-0-0-0~~-0~~---------------------------|
                                             - - - - - -
...That nothing more is left of me, just Bittersweet Memoooories"


[Breakdown]
Matt
D|--------------------------------------------------------------------------|
A|-5-5-5-6-6-6-5-5-5-6-6-6-0-0-0-0-10-10-10-11-11-11-8-8-8-10-10-10-6-6-6-6-|
F|-5-5-5-------5-5-5--------------------------------------------------------|
C|--------------------------------------------------------------------------|
G|--------------------------------------------------------------------------|
C|--------------------------------------------------------------------------|
Padge
D|---------------------------------------------------------|
A|---------------------------------------------------------|
F|-----------------------------3-3-3-3~~-3~~-3-3-3-3~~-3~~-|
C|-0-0-0-0~~-0~~-0-0-0-0~~-0~~-3-3-3-3~~-3~~-3-3-3-3~~-3~~-|
G|-0-0-0-0~~-0~~-0-0-0-0~~-0~~-1-1-1-1~~-1~~-1-1-1-1~~-1~~-|
C|-0-0-0-0~~-0~~-0-0-0-0~~-0~~-----------------------------|

Matt
D|-----------------------------------------------------------------|
A|-5-5-5-6-6-6-5-5-5-6-6-6-0-0-0-0-10--11--10--8--10--8--6--8--6b=-|
F|-5-5-5-------5-5-5-----------------------------------------------|
C|-----------------------------------------------------------------|
G|-----------------------------------------------------------------|
C|-----------------------------------------------------------------|
Padge
D|---------------------------------------------------------|
A|---------------------------------------------------------|
F|-----------------------------5-5-5-5~~-5~~-5-5-5-5~~-5~~-|
C|-3-3-3-3~~-3~~-3-3-3-3~~-3~~-5-5-5-5~~-5~~-5-5-5-5~~-5~~-|
G|-3-3-3-3~~-3~~-3-3-3-3~~-3~~-3-3-3-3~~-3~~-3-3-3-3~~-3~~-|
C|-3-3-3-3~~-3~~-3-3-3-3~~-3~~-----------------------------|
...Just Bittersweet Memoorrriiess

Matt
D|--------------------------------------------------------------------------|
A|-5-5-5-6-6-6-5-5-5-6-6-6-0-0-0-0-10-10-10-11-11-11-8-8-8-10-10-10-6-6-6-6-|
F|-5-5-5-------5-5-5--------------------------------------------------------|
C|--------------------------------------------------------------------------|
G|--------------------------------------------------------------------------|
C|--------------------------------------------------------------------------|
Padge
D|---------------------------------------------------------|
A|---------------------------------------------------------|
F|-----------------------------3-3-3-3~~-3~~-3-3-3-3~~-3~~-|
C|-0-0-0-0~~-0~~-0-0-0-0~~-0~~-3-3-3-3~~-3~~-3-3-3-3~~-3~~-|
G|-0-0-0-0~~-0~~-0-0-0-0~~-0~~-1-1-1-1~~-1~~-1-1-1-1~~-1~~-|
C|-0-0-0-0~~-0~~-0-0-0-0~~-0~~-----------------------------|
Gtr 3
D|---------------------------------------------------------------------------------------|
A|-8-8-8-10-10-10-8-8-8-10-10-10-0-0-0-0-13-13-13-15-15-15-11-11-11-13-13-13-10-10-10-10-|
F|-9-9-9----------9-9-9------------------------------------------------------------------|
C|---------------------------------------------------------------------------------------|
G|---------------------------------------------------------------------------------------|
C|---------------------------------------------------------------------------------------|

Matt
D|----------------------------------------------------------------------------|
A|-5-5-5-6-6-6-5-5-5-6-6-6-0-0-0-0-10--11--10--8--10--8--6--8--6--5-6-8-6~~~~-|
F|-5-5-5-------5-5-5----------------------------------------------------------|
C|----------------------------------------------------------------------------|
G|----------------------------------------------------------------------------|
C|----------------------------------------------------------------------------|
Padge
D|---------------------------------------------------------|
A|---------------------------------------------------------|
F|-----------------------------5-5-5-5~~-5~~-5-5-5-5~~-5~~-|
C|-3-3-3-3~~-3~~-3-3-3-3~~-3~~-5-5-5-5~~-5~~-5-5-5-5~~-5~~-|
G|-3-3-3-3~~-3~~-3-3-3-3~~-3~~-3-3-3-3~~-3~~-3-3-3-3~~-3~~-|
C|-3-3-3-3~~-3~~-3-3-3-3~~-3~~-----------------------------|
Gtr 3
D|-------------------------------------------------------------------------------|
A|-8-8-8-10-10-10-8-8-8-10-10-10-0-0-0-0-13-15-13-11-13-11-10-11-10-8-10-11-10~~-|
F|-9-9-9----------9-9-9----------------------------------------------------------|
C|-------------------------------------------------------------------------------|
G|-------------------------------------------------------------------------------|
C|-------------------------------------------------------------------------------|


[Pre Chorus]
Matt & Padge
D|-----------------------------------------------------------------------|
A|-----------------------------------------------------------------------|
F|-10-10-10-10~-1010-10-10-10~-10~~--------------------------------------|
C|--x--x--x--x---x-x--x--x--x---x---------0~~----------------------------|
G|--8--8--8--8~--8-8--8--8--8~--8br-0-0-0-0~~-8p0-----7p0----5p0-----3p0-|
C|----------------------------------0-0-0-0~~-----0-0----0-0-----0-0-----|
                                    - - -         - -    - -     - -
"Wee get so complicateeeed! (COMPLICATEEEED!!!)

Matt
D|-------------------------------------------------------|
A|-------------------------------------------------------|
F|-10-10-10-10~-1010-10-10-10~-10~~-5-5-5-5br~-5-5-5-5-5-|
C|--x--x--x--x---x-x--x--x--x---x---x-x-x-x----x-x-x-x-x-|
G|--8--8--8--8~--8-8--8--8--8~--8br-3-3-3-3br~-3-3-3-3-3-|
C|-------------------------------------------------------|
Padge
D|-------------------------------------------------------|
A|-------------------------------------------------------|
F|-10-10-10-10~-1010-10-10-10~-10~~-5-5-5-7-7-7-9-9-9-10-|
C|--x--x--x--x---x-x--x--x--x---x---x-x-x-x-x-x-x-x-x--x-|
G|--8--8--8--8~--8-8--8--8--8~--8br-3-3-3-5-5-5-7-7-7--8-|
C|-------------------------------------------------------|
...This finger's for our memooorrriee-

Matt
D|--------------------------------------------------------------------------|
A|-5-5-5-6-6-6-5-5-5-6-6-6-0-0-0-0-10-10-10-11-11-11-8-8-8-10-10-10-6-6-6-6-|
F|-5-5-5-------5-5-5--------------------------------------------------------|
C|--------------------------------------------------------------------------|
G|--------------------------------------------------------------------------|
C|--------------------------------------------------------------------------|
Padge
D|---------------------------------------------------------------------------------------|
A|---------------------------------------------------------------------------------------|
F|---------------------------------------------------------------------------------------|
C|-3~~~~~~~~~~~~~~~~~~~~~~~~~~~~~~~~~~~~~~~-3~~~~~~~~~~~~~~~~~~~~~~~~~~~~~~~~~~~~~~~~~~~~|
G|-3~~~~~~~~~~~~~~~~~~~~~~~~~~~~~~~~~~~~~~~-3~~~~~~~~~~~~~~~~~~~~~~~~~~~~~~~~~~~~~~~~~~~~|
C|-3~~~~~~~~~~~~~~~~~~~~~~~~~~~~~~~~~~~~~~~-3~~~~~~~~~~~~~~~~~~~~~~~~~~~~~~~~~~~~~~~~~~~~|
Gtr 3
D|---------------------------------------------------------------------------------------|
A|-8-8-8-10-10-10-8-8-8-10-10-10-0-0-0-0-13-13-13-15-15-15-11-11-11-13-13-13-10-10-10-10-|
F|-9-9-9----------9-9-9------------------------------------------------------------------|
C|---------------------------------------------------------------------------------------|
G|---------------------------------------------------------------------------------------|
C|---------------------------------------------------------------------------------------|
...Eeeeesss                                           ...We get soo

Matt
D|---------------------------------------------------------------|
A|-5-5-5-6-6-6-5-5-5-6-6-6-0-0-0-0-10--11--10--8--10--8--6--8--6-|
F|-5-5-5-------5-5-5---------------------------------------------|
C|---------------------------------------------------------------|
G|---------------------------------------------------------------|
C|---------------------------------------------------------------|
Padge
D|---------------------------------------------------------------|
A|---------------------------------------------------------------|
F|---------------------------------------------------------------|
C|-------------------------------------------------------------3-|
G|-3--3--3--3--3--3--3--3--3--3--3--3--3--3---3---3----3----3--3-|
C|-3--3--3--3--3--3--3--3--3--3--3--3--3--3---3---3----3----3--3-|
   -  -  -  -  -  -  -  -  -  -  -  -  -  -   -   -    -    -
Gtr 3
D|------------------------------------------------------------------|
A|-8-8-8-10-10-10-8-8-8-10-10-10-0-0-0-0-13-15-13-11-13-11-10-11-10-|
F|-9-9-9----------9-9-9---------------------------------------------|
C|------------------------------------------------------------------|
G|------------------------------------------------------------------|
C|------------------------------------------------------------------|
...Complicateeeeed (complicateeeeeed)"


[Chorus]

Matt & Padge
D|--------------------------------------------------------|
A|--------------------------------------------------------|
F|--------------------------------------------------------|
C|-3-3-3-3~~-3~~-3-3-3-3~~-3~~-3-3-3-3~~-3~~-3-3-3-3~~-3~~|
G|-3-3-3-3~~-3~~-3-3-3-3~~-3~~-3-3-3-3~~-3~~-3-3-3-3~~-3~~|
C|-3-3-3-3~~-3~~-3-3-3-3~~-3~~-3-3-3-3~~-3~~-3-3-3-3~~-3~~|
-"So rip my pictures from your wall, tear them down and burn them all
(SO RIIIIIIIIIIIIIIP!!!)

D|--------------------------------------------------------|
A|--------------------------------------------------------|
F|-----------------------------3-3-3-3~~-3~~-3-3-3-3~~-3~~|
C|-0-0-0-0~~-0~~-0-0-0-0~~-0~~-3-3-3-3~~-3~~-3-3-3-3~~-3~~|
G|-0-0-0-0~~-0~~-0-0-0-0~~-0~~-1-1-1-1~~-1~~-1-1-1-1~~-1~~|
C|-0-0-0-0~~-0~~-0-0-0-0~~-0~~----------------------------|
...Light the fire and walk away, there's nothing left to say, soo

D|--------------------------------------------------------|
A|--------------------------------------------------------|
F|--------------------------------------------------------|
C|-3-3-3-3~~-3~~-3-3-3-3~~-3~~-3-3-3-3~~-3~~-3-3-3-3~~-3~~|
G|-3-3-3-3~~-3~~-3-3-3-3~~-3~~-3-3-3-3~~-3~~-3-3-3-3~~-3~~|
C|-3-3-3-3~~-3~~-3-3-3-3~~-3~~-3-3-3-3~~-3~~-3-3-3-3~~-3~~|
...Take the ashes from the floor, bury them to just make sure

D|-------------------------------------------------------|
A|-------------------------------------------------------|
F|-----------------------------3-3-3-3~~-3~~-------------|
C|-0-0-0-0~~-0~~-0-0-0-0~~-0~~-3-3-3-3~~-3~~-3-3-3-3-3-3-|
G|-0-0-0-0~~-0~~-0-0-0-0~~-0~~-1-1-1-1~~-1~~-1-1-1-1-1-1-|
C|-0-0-0-0~~-0~~-0-0-0-0~~-0~~---------------------------|
                                             - - - - - -
...That nothing more is left of me, just Bittersweet Memoooories"

Matt
D|--------------------------------------------------------------------------|
A|-5-5-5-6-6-6-5-5-5-6-6-6-0-0-0-0-10-10-10-11-11-11-8-8-8-10-10-10-6-6-6-6-|
F|-5-5-5-------5-5-5--------------------------------------------------------|
C|--------------------------------------------------------------------------|
G|--------------------------------------------------------------------------|
C|--------------------------------------------------------------------------|
Padge
D|-------------------------------------------------------|
A|-------------------------------------------------------|
F|-------------------------------------------------------|
C|-3-3-3-3~-3~~-3-3-3-3~~-3~~-0-0-0-0~~-0~~-0-0-0-0~~-0~~|
G|-3-3-3-3~-3~~-3-3-3-3~~-3~~-0-0-0-0~~-0~~-0-0-0-0~~-0~~|
C|-3-3-3-3~-3~~-3-3-3-3~~-3~~-0-0-0-0~~-0~~-0-0-0-0~~-0~~|
Gtr 3
D|---------------------------------------------------------------------------------------|
A|-8-8-8-10-10-10-8-8-8-10-10-10-0-0-0-0-13-13-13-15-15-15-11-11-11-13-13-13-10-10-10-10-|
F|-9-9-9----------9-9-9------------------------------------------------------------------|
C|---------------------------------------------------------------------------------------|
G|---------------------------------------------------------------------------------------|
C|---------------------------------------------------------------------------------------|
"Whoooaaaaa ohhhhh ohhh oh Whoooaaaaa ohhhhh ohhh oh

Matt
D|-------------------------------------------------------|
A|-5-5-5-6-6-6-5-5-5-6-6-6-0-0-0-0-10-11-10-8-10-8-6-8-6-|
F|-5-5-5-------5-5-5-------------------------------------|
C|-------------------------------------------------------|
G|-------------------------------------------------------|
C|-------------------------------------------------------|
Padge
D|-----------------------------------------------------------|
A|-----------------------------------------------------------|
F|-3-3-3-3~~-3~~-3-3-3-3~~-3~~-5-5-5-5~~-5~~-5-5-5-5~~-5~~---|
C|-3-3-3-3~~-3~~-3-3-3-3~~-3~~-5-5-5-5~~-5~~-5-5-5-5~~-5~~---|
G|-1-1-1-1~~-1~~-1-1-1-1~~-1~~-3-3-3-3~~-3~~-3-3-3-3~~-3~~---|
C|--------------------------------------------------------12\|
Gtr 3
D|------------------------------------------------------------------|
A|-8-8-8-10-10-10-8-8-8-10-10-10-0-0-0-0-13-15-13-11-13-11-10-11-10-|
F|-9-9-9----------9-9-9---------------------------------------------|
C|------------------------------------------------------------------|
G|------------------------------------------------------------------|
C|------------------------------------------------------------------|
Whoooaaaaa ohhhhh ohhh oh, There's nothing left to saaaay

Matt
D|--------------------------------------------------------------------------|
A|-5-5-5-6-6-6-5-5-5-6-6-6-0-0-0-0-10-10-10-11-11-11-8-8-8-10-10-10-6-6-6-6-|
F|-5-5-5-------5-5-5--------------------------------------------------------|
C|--------------------------------------------------------------------------|
G|--------------------------------------------------------------------------|
C|--------------------------------------------------------------------------|
Padge
D|-------------------------------------------------------|
A|-------------------------------------------------------|
F|-------------------------------------------------------|
C|-3-3-3-3~-3~~-3-3-3-3~~-3~~-0-0-0-0~~-0~~-0-0-0-0~~-0~~|
G|-3-3-3-3~-3~~-3-3-3-3~~-3~~-0-0-0-0~~-0~~-0-0-0-0~~-0~~|
C|-3-3-3-3~-3~~-3-3-3-3~~-3~~-0-0-0-0~~-0~~-0-0-0-0~~-0~~|
Gtr 3
D|---------------------------------------------------------------------------------------|
A|-8-8-8-10-10-10-8-8-8-10-10-10-0-0-0-0-13-13-13-15-15-15-11-11-11-13-13-13-10-10-10-10-|
F|-9-9-9----------9-9-9------------------------------------------------------------------|
C|---------------------------------------------------------------------------------------|
G|---------------------------------------------------------------------------------------|
C|---------------------------------------------------------------------------------------|
"Whoooaaaaa ohhhhh ohhh oh Whoooaaaaa ohhhhh ohhh oh

Matt
D|----------------------------------------------------------------------------|
A|-5-5-5-6-6-6-5-5-5-6-6-6-0-0-0-0-10--11--10--8--10--8--6--8--6--5-6-8-6~~~~-|
F|-5-5-5-------5-5-5----------------------------------------------------------|
C|----------------------------------------------------------------------------|
G|----------------------------------------------------------------------------|
C|----------------------------------------------------------------------------|
Padge
D|--------------------------------------------------------|
A|--------------------------------------------------------|
F|-3-3-3-3~~-3~~-3-3-3-3~~-3~~-5-5-5-5~~-5~~-5-5-5-5~~-5~~|
C|-3-3-3-3~~-3~~-3-3-3-3~~-3~~-5-5-5-5~~-5~~-5-5-5-5~~-5~~|
G|-1-1-1-1~~-1~~-1-1-1-1~~-1~~-3-3-3-3~~-3~~-3-3-3-3~~-3~~|
C|--------------------------------------------------------|
Gtr 3
D|-------------------------------------------------------------------------------|
A|-8-8-8-10-10-10-8-8-8-10-10-10-0-0-0-0-13-15-13-11-13-11-10-11-10-8-10-11-10~~-|
F|-9-9-9----------9-9-9----------------------------------------------------------|
C|-------------------------------------------------------------------------------|
G|-------------------------------------------------------------------------------|
C|-------------------------------------------------------------------------------|
Whoooaaaaa ohhhhh ohhh oh, There's nothing left to saaaay"

Matt
D|---------------------------------------------------------------------------|
A|-8-10-8----8~~~~~~~~-8-10-8--------------8-10-8-10b=======r~-8-10-8--------|
F|--------10------------------10-9~~~~~~~~----------------------------10-9~~~|
C|---------------------------------------------------------------------------|
G|---------------------------------------------------------------------------|
C|---------------------------------------------------------------------------|
Padge
D|---------------------------------------------------------------------------|
A|---------------------------------------------------------------------------|
F|---------------------------------------------------------------------------|
C|-3~~~~~~~~~~~~~~~~~~~~~~~~~~~~~~~~~~~~~~~~~~~~~~~~~~~~~~~~~~~~~~~~~~~~~~~~~|
G|-3~~~~~~~~~~~~~~~~~~~~~~~~~~~~~~~~~~~~~~~~~~~~~~~~~~~~~~~~~~~~~~~~~~~~~~~~~|
C|-3~~~~~~~~~~~~~~~~~~~~~~~~~~~~~~~~~~~~~~~~~~~~~~~~~~~~~~~~~~~~~~~~~~~~~~~~~|
Gtr 3
D|---------------------------------------------------------------------------|
A|-5-6--5----5~~~~~~~~-5-6--5--------------5-6--5--6b=======r~-5-6--5--------|
F|--------7-------------------7--5~~~~~~~~----------------------------7--5~~~|
C|---------------------------------------------------------------------------|
G|---------------------------------------------------------------------------|
C|---------------------------------------------------------------------------|

Matt
D|-----------------------------------------------------------------|
A|-10~~~~~~~~~~~~~~~~~~~~~~~~~~~~~~~~~~~~~~~~~~~~~~~~~~~~~~~~~~~~~~|
F|-----------------------------------------------------------------|
C|-----------------------------------------------------------------|
G|-----------------------------------------------------------------|
C|-----------------------------------------------------------------|
Padge
D|-----------------------------------------------------------------|
A|-----------------------------------------------------------------|
F|-----------------------------------------------------------------|
C|~~~~~~~~~~~~~~~~~~~~~~~~~~~~~~~~~~~~~~~~~~~~~~~~~~~~~~~~~~~~~~~~~|
G|~~~~~~~~~~~~~~~~~~~~~~~~~~~~~~~~~~~~~~~~~~~~~~~~~~~~~~~~~~~~~~~~~|
C|~~~~~~~~~~~~~~~~~~~~~~~~~~~~~~~~~~~~~~~~~~~~~~~~~~~~~~~~~~~~~~~~~|
Gtr 3
D|-----------------------------------------------------------------|
A|-6~~~~~~~~~~~~~~~~~~~~~~~~~~~~~~~~~~~~~~~~~~~~~~~~~~~~~~~~~~~~~~~|
F|-----------------------------------------------------------------|
C|-----------------------------------------------------------------|
G|-----------------------------------------------------------------|
C|-----------------------------------------------------------------|



************************************

| x   Dead note
| p   Pull-off
| br  Bend release
| \   Slide down
| ~   Vibrato

************************************
Suggest correction
Creating personal tab
Creating personal tab
You can edit any tab online and save it as your Personal.

You can edit, replace or remove any tab part or add personal notes – all changes will be seen only by you.

Personal tabs can be accessed anytime from any device, even offline.
Learn more »
comments
print report bad tab
18 comments total. Showing first comments.
0 reply
jjband93 10 May 15, 2010 08:01 AM

thanks for the tab it helped me a lot

+2 reply
xXshadowswordXx 40 May 15, 2010 03:22 PM

dude thank you so much for the verse and well done on the whole tab 5 stars :D

0 reply
melancholy_duck 81 May 16, 2010 12:23 PM

Great tab, thanks dude :P Only thing, some of your lyrics are wrong - scream THOSE words as a weapon, these fingers FULL OF memories etc. They're not that important though :) 5 stars! :P

guest
You may want to rate the tab now too:
select rating
Wanna post a correction for this tab? Suggest correction