Oops, an error
Loading. Please wait.

Breaking Out Breaking Down tab

version 3
version 3

Whole song

Interactive

797 views 1 this week
no commentswrite comment
1 2 3 4 5
1 last vote to show rating
add to favorites
×
Save as Personal and add changes to this tab that will be seen only by you. Learn more ›
×
You can save this tab as Personal to edit and correct it or add notes. All changes will be seen only by you. Learn more »
launch autoscroll
font size
0
reset
how to read this tab
guitar tuner
edit
Autoscroll
slow
fast
+/-
esc
set tempo
stop
Breaking Out, Breaking Down
Bullet For My Valentine
Fever
Drop C- CGCFAD


-Intro-
Matt & Padge
D|-----------------|
A|-----------------|
F|-----------------|
C|-x-x-x-x-x-x-x-x-|
G|-x-x-x-x-x-x-x-x-|
C|-x-x-x-x-x-x-x-x-|

Matt
D||----------------------------------------------------||
A||o--------------------------------------------------o||
F||----------------------------------------------------||
C||--4~~~~~~~~~~~~~~~~~~~~~~~~~~~~~~~~~~~~~~~~~~~~~~~~-||
G||o-4~~~~~~~~~~~~~~~~~~~~~~~~~~~~~~~~~~~~~~~~~~~~~~~~o||
C||--4~~~~~~~~~~~~~~~~~~~~~~~~~~~~~~~~~~~~~~~~~~~~~~~~-||
Padge
D||----------------------------------------------------||
A||o--------------------------------------------------o||
F||--6~~-------6---4~~-------4---2~~-------2---1~~-2~~-||
C||--4~~-4-4-4-4-4-4~~-4-4-4-4-4-4~~-4-4-4-4-4-2~~-4~~-||
G||o--------------------------------------------------o||
C||----------------------------------------------------||
         - - -   -     - - -   -     - - -   -
-"We could blame, the world forever...
-We could just, escape together...

Matt
D|------------------------------------------------|
A|------------------------------------------------|
F|------------------------------------------------|
C|-0~~~~~~~~~~~~~~~~~~~~~~~~~~~~~~~~~~~~~~~~~~~~~~|
G|-0~~~~~~~~~~~~~~~~~~~~~~~~~~~~~~~~~~~~~~~~~~~~~~|
C|-0~~~~~~~~~~~~~~~~~~~~~~~~~~~~~~~~~~~~~~~~~~~~~~|
Padge
D|------------------------------------------------|
A|------------------------------------------------|
F|------------------------------------------------|
C|-7~-------7---6~~-------6---7~~-------7~-6~~-7~~|
G|-5~-5-5-5-5-5-5~~-5-5-5-5-5-5~~-5-5-5-5~-5~~-5~~|
C|------------------------------------------------|
      - - -   -     - - -   -     - - -
...So are we Breaking Out? or are we Breaking Down?

Matt
D|-------------------------------------------------|
A|-------------------------------------------------|
F|-------------------------------------------------|
C|-4~~~~~~~~~~~~~~~~~~~~~~~~~~~~~~~~~~~~~4---------|
G|-4~~~~~~~~~~~~~~~~~~~~~~~~~~~~~~~~~~~~~4---------|
C|-4~~~~~~~~~~~~~~~~~~~~~~~~~~~~~~~~~~~~~4---------|
Padge
D|-------------------------------------------------|
A|-------------------------------------------------|
F|-6~~-------6---4~~-------4---2~~-------2---------|
C|-4~~-4-4-4-4-4-4~~-4-4-4-4-4-4~~-4-4-4-4---------|
G|-------------------------------------------------|
C|-------------------------------------------------|
       - - -   -     - - -   -     - - -
...We can't blame this world forever (THIS WORLD FOREVER!)"

Matt
D|-------------------------------------------------------------------------------------------------|
A|-------------------------------------------------------------------------------------------------|
F|-14-14-14-14-14-14-14-14-14-14-14-14-14-14-14-14-16-16-16-16-16-16-16-16-13-13-13-13-13-13-13-13-|
C|-x--x--x--x--x--x--x--x--x--x--x--x--x--x--x--x--x--x--x--x--x--x--x--x--x--x--x--x--x--x--x--x--|
G|-12-12-12-12-12-12-12-12-12-12-12-12-12-12-12-12-14-14-14-14-14-14-14-14-11-11-11-11-11-11-11-11-|
C|-------------------------------------------------------------------------------------------------|
Padge
D|--------------------------------------------------|
A|--------------------------------------------------|
F|-6~~-------6---4~~-------4---2~~-------2---1~~-2~~|
C|-4~~-4-4-4-4-4-4~~-4-4-4-4-4-4~~-4-4-4-4-4-2~~-4~~|
G|--------------------------------------------------|
C|--------------------------------------------------|
       - - -   -     - - -   -     - - -   -

Matt
D|-------------------------------------------------------------------------|
A|-------------------------------------------------------------------------|
F|-14-14-14-14-14-14-14-14-14-14-14-14-14-14-14-14-16-16-16-16-13-13-13-13-|
C|-x--x--x--x--x--x--x--x--x--x--x--x--x--x--x--x--x--x--x--x--x--x--x--x--|
G|-12-12-12-12-12-12-12-12-12-12-12-12-12-12-12-12-14-14-14-14-11-11-11-11-|
C|-------------------------------------------------------------------------|
Padge
D|--------------------------------------------------|
A|--------------------------------------------------|
F|-6~~-------6---4~~-------4---2~~-------2---1~~-2~~|
C|-4~~-4-4-4-4-4-4~~-4-4-4-4-4-4~~-4-4-4-4-4-2~~-4~~|
G|--------------------------------------------------|
C|--------------------------------------------------|
       - - -   -     - - -   -     - - -   -

Matt
D|-------------------------------------------------------------------------------------------------|
A|-------------------------------------------------------------------------------------------------|
F|-11-11-11-11-11-11-11-11-13-13-13-13-13-13-13-13-14-14-14-14-14-14-14-14-16-16-16-16-16-16-16-16-|
C|-x--x--x--x--x--x--x--x--x--x--x--x--x--x--x--x--x--x--x--x--x--x--x--x--x--x--x--x--x--x--x--x--|
G|-9--9--9--9--9--9--9--9--11-11-11-11-11-11-11-11-12-12-12-12-12-12-12-12-14-14-14-14-14-14-14-14-|
C|-------------------------------------------------------------------------------------------------|
Padge
D|-------------------------------------------------------------------------------------------------|
A|-------------------------------------------------------------------------------------------------|
F|-14-14-14-14-14-14-14-14-16-16-16-16-16-16-16-16-18-18-18-18-18-18-18-18-19-19-19-19-19-19-19-19-|
C|-x--x--x--x--x--x--x--x--x--x--x--x--x--x--x--x--x--x--x--x--x--x--x--x--x--x--x--x--x--x--x--x--|
G|-12-12-12-12-12-12-12-12-14-14-14-14-14-14-14-14-16-16-16-16-16-16-16-16-17-17-17-17-17-17-17-17-|
C|-------------------------------------------------------------------------------------------------|

Matt
D|-------------------------------------------------------------|
A|-------------------------------------------------------------|
F|-14-14-14-14-14-14-14-14-14-14-14-14-14-14-14-14-------------|
C|-x--x--x--x--x--x--x--x--x--x--x--x--x--x--x--x--------------|
G|-12-12-12-12-12-12-12-12-12-12-12-12-12-12-12-12-------------|
C|-------------------------------------------------0-2-4-2-4-6-|
Padge
D|---------------------------------------------------------|
A|---------------------------------------------------------|
F|-6~~-------6---4~~-------4---2~~-------2---2-------------|
C|-4~~-4-4-4-4-4-4~~-4-4-4-4-4-4~~-4-4-4-4-4-4-------------|
G|---------------------------------------------------------|
C|---------------------------------------------0-2-4-2-4-6-|
       - - -   -     - - -   -     - - -   -


-Verse-
Matt & Padge
D||----------------------------------------------||
A||o--------------------------------------------o||
F||----------------------------------------------||
C||--2~-4-4---------------2~-4-4-----------------||
G||o-2~-4-4---------------2~-4-4----------------o||
C||--2~-4-4---------------2~-4-4----0-2-4-2-4-6--||
-"The end will never come, there's still a mountain left to
-Climb, but we will overcome, the hurdles placed inside our

Matt
D||---------------------------------------------------------||
A||o-------------------------------------------------------o||
F||------------------6-4------------------------------------||
C||--2~-4-4--7-6-4-6------7-6-4-6-7--2~-4-4-----------------||
G||o-2~-4-4--------------------------2~-4-4----------------o||
C||--2~-4-4--------------------------2~-4-4----0-2-4-2-4-6--||
             - - - - - -  - - - - -
Padge
D||---------------------------------------------------------||
A||o-------------------------------------------------------o||
F||------------------9-7------------------------------------||
C||--2~-4-4-11-9-7-9-----11-9-7-9-11-2~-4-4-----------------||
G||o-2~-4-4--------------------------2~-4-4----------------o||
C||--2~-4-4--------------------------2~-4-4----0-2-4-2-4-6--||
            -  - - - - - -  - - - -
-Minds (SO CLOSE BUT STILL SO FAR!) Each day will bring us brand new
-Scars (WHAT ARE WE FIGHTING FOR!) We cannot live like this no"


-Pre Chorus-
Matt
D|--------------------------------------------|
A|--------------------------------------------|
F|--------------------------------------------|
C|-0~~~~~~~~~~~~~~~~~~-7~~~~~~~~~~~~~~~~~~~~~~|
G|-0~~~~~~~~~~~~~~~~~~-7~~~~~~~~~~~~~~~~~~~~~~|
C|-0~~~~~~~~~~~~~~~~~~-7~~~~~~~~~~~~~~~~~~~~~~|
Padge
D|--------------------------------------------|
A|-10-9---/12-10-9-10~-10-9---/12-10-9h10p9---|
F|------9-------------------9---------------9-|
C|--------------------------------------------|
G|--------------------------------------------|
C|--------------------------------------------|
"More, 'cause in the thick of darkened...

Matt
D|-----------------------------------------------|
A|-----------------------------------------------|
F|-----------------------------------------------|
C|-----------------------------------------------|
G|-2-2-2-2-2-2-2-2-2-2-2-2-4-4-4-4-4-4-4-4-4-4-4-|
C|-2-2-2-2-2-2-2-2-2-2-2-2-4-4-4-4-4-4-4-4-4-4-4-|
   - - - - - - - - - - - - - - - - - - - - - - -
Padge
D|-----------------------------------------------|
A|-10-9-----/12-10--9-10~-10-9-----/12-10--9-10~-|
F|-------9----------------------9----------------|
C|-----------------------------------------------|
G|-----------------------------------------------|
C|-----------------------------------------------|
Gtr 3
D|-----------------------------------------------|
A|-14-12----/15-14-12-14~-14-12----/15-14-12-14~-|
F|-------14---------------------14---------------|
C|-----------------------------------------------|
G|-----------------------------------------------|
C|-----------------------------------------------|
...Days, We know (we know)"


-Chorus-
Matt
D||----------------------------------------------------||
A||o--------------------------------------------------o||
F||----------------------------------------------------||
C||--4~~-------4---4~~-------4---4~~-------4-7~-7-6~-6-||
G||o-4~~-4-4-4-4-4-4~~-4-4-4-4-4-4~~-4-4-4-4----------o||
C||--4~~-4-4-4-4-4-4~~-4-4-4-4-4-4~~-4-4-4-4-----------||
         - - -   -     - - -   -     - - -
Padge
D||----------------------------------------------------||
A||o--------------------------------------------------o||
F||--6~~-------6---4~~-------4---2~~-------2-6~-6-4~-4-||
C||--4~~-4-4-4-4-4-4~~-4-4-4-4-4-4~~-4-4-4-4-----------||
G||o--------------------------------------------------o||
C||----------------------------------------------------||
         - - -   -     - - -   -     - - -
-"We could blame, the world forever...
-We could just, escape together...

Matt
D|-------------------------------------------------------------------------------------------------|
A|-------------------------------------------------------------------------------------------------|
F|-11-11-11-11-11-11-11-11-13-13-13-13-13-13-13-13-14-14-14-14-14-14-14-14-16-16-16-16-16-16-16-16-|
C|-x--x--x--x--x--x--x--x--x--x--x--x--x--x--x--x--x--x--x--x--x--x--x--x--x--x--x--x--x--x--x--x--|
G|-9--9--9--9--9--9--9--9--11-11-11-11-11-11-11-11-12-12-12-12-12-12-12-12-14-14-14-14-14-14-14-14-|
C|-------------------------------------------------------------------------------------------------|
Padge
D|-------------------------------------------------------------------------------------------------|
A|-------------------------------------------------------------------------------------------------|
F|-14-14-14-14-14-14-14-14-16-16-16-16-16-16-16-16-18-18-18-18-18-18-18-18-19-19-19-19-19-19-19-19-|
C|-x--x--x--x--x--x--x--x--x--x--x--x--x--x--x--x--x--x--x--x--x--x--x--x--x--x--x--x--x--x--x--x--|
G|-12-12-12-12-12-12-12-12-14-14-14-14-14-14-14-14-16-16-16-16-16-16-16-16-17-17-17-17-17-17-17-17-|
C|-------------------------------------------------------------------------------------------------|
...So are we Breaking Out? (BREAKING OUT!) Or are we Breaking Down? (BREAKING DOWN!)

Matt
D|------------------------------------------------------|
A|------------------------------------------------------|
F|------------------------------------------------------|
C|-4~~-------4---4~~-------4---4~~-------4--------------|
G|-4~~-4-4-4-4-4-4~~-4-4-4-4-4-4~~-4-4-4-4--------------|
C|-4~~-4-4-4-4-4-4~~-4-4-4-4-4-4~~-4-4-4-4--0-2-4-2-4-6-|
       - - -   -     - - -   -     - - -
Padge
D|------------------------------------------------------|
A|------------------------------------------------------|
F|-6~~-------6---4~~-------4---2~~-------2--------------|
C|-4~~-4-4-4-4-4-4~~-4-4-4-4-4-4~~-4-4-4-4--------------|
G|------------------------------------------------------|
C|------------------------------------------0-2-4-2-4-6-|
       - - -   -     - - -   -     - - -
...We can't blame this world forever (THIS WORLD FOREVER!)"


-Verse-
Matt & Padge
D||----------------------------------------------||
A||o--------------------------------------------o||
F||----------------------------------------------||
C||--2~-4-4---------------2~-4-4-----------------||
G||o-2~-4-4---------------2~-4-4----------------o||
C||--2~-4-4---------------2~-4-4----0-2-4-2-4-6--||
-"Just need some clarity, can't seem to open up these
-Eyes, for what your sympathy, it took me time to rea-

Matt
D||---------------------------------------------------------||
A||o-------------------------------------------------------o||
F||------------------6-4------------------------------------||
C||--2~-4-4--7-6-4-6------7-6-4-6-7--2~-4-4-----------------||
G||o-2~-4-4--------------------------2~-4-4----------------o||
C||--2~-4-4--------------------------2~-4-4----0-2-4-2-4-6--||
             - - - - - -  - - - - -
Padge
D||---------------------------------------------------------||
A||o-------------------------------------------------------o||
F||------------------9-7------------------------------------||
C||--2~-4-4-11-9-7-9-----11-9-7-9-11-2~-4-4-----------------||
G||o-2~-4-4--------------------------2~-4-4----------------o||
C||--2~-4-4--------------------------2~-4-4----0-2-4-2-4-6--||
            -  - - - - - -  - - - -
-Lize (THIS IS NOT WHAT I WANT!) Or how I thought this life would
-Be (THIS IS NOT WHAT WE NEED!) So take this shit away from"


-Pre Chorus-
Matt
D|--------------------------------------------|
A|--------------------------------------------|
F|--------------------------------------------|
C|-0~~~~~~~~~~~~~~~~~~-7~~~~~~~~~~~~~~~~~~~~~~|
G|-0~~~~~~~~~~~~~~~~~~-7~~~~~~~~~~~~~~~~~~~~~~|
C|-0~~~~~~~~~~~~~~~~~~-7~~~~~~~~~~~~~~~~~~~~~~|
Padge
D|--------------------------------------------|
A|-10-9---/12-10-9-10~-10-9---/12-10-9h10p9---|
F|------9-------------------9---------------9-|
C|--------------------------------------------|
G|--------------------------------------------|
C|--------------------------------------------|
"Me, 'cause in the thick of darkened days...

Matt
D|-----------------------------------------------|
A|-----------------------------------------------|
F|-----------------------------------------------|
C|-----------------------------------------------|
G|-2-2-2-2-2-2-2-2-2-2-2-2-4-4-4-4-4-4-4-4-4-4-4-|
C|-2-2-2-2-2-2-2-2-2-2-2-2-4-4-4-4-4-4-4-4-4-4-4-|
   - - - - - - - - - - - - - - - - - - - - - - -
Padge
D|-----------------------------------------------|
A|-10-9-----/12-10--9-10~-10-9-----/12-10--9-10~-|
F|-------9----------------------9----------------|
C|-----------------------------------------------|
G|-----------------------------------------------|
C|-----------------------------------------------|
Gtr 3
D|-----------------------------------------------|
A|-14-12----/15-14-12-14~-14-12----/15-14-12-14~-|
F|-------14---------------------14---------------|
C|-----------------------------------------------|
G|-----------------------------------------------|
C|-----------------------------------------------|
...We know (we know)"


-Chorus-
Matt
D||----------------------------------------------------||
A||o--------------------------------------------------o||
F||----------------------------------------------------||
C||--4~~-------4---4~~-------4---4~~-------4-7~-7-6~-6-||
G||o-4~~-4-4-4-4-4-4~~-4-4-4-4-4-4~~-4-4-4-4----------o||
C||--4~~-4-4-4-4-4-4~~-4-4-4-4-4-4~~-4-4-4-4-----------||
         - - -   -     - - -   -     - - -
Padge
D||----------------------------------------------------||
A||o--------------------------------------------------o||
F||--6~~-------6---4~~-------4---2~~-------2-6~-6-4~-4-||
C||--4~~-4-4-4-4-4-4~~-4-4-4-4-4-4~~-4-4-4-4-----------||
G||o--------------------------------------------------o||
C||----------------------------------------------------||
         - - -   -     - - -   -     - - -
-"We could blame, the world forever...
-We could just, escape together...

Matt
D|-------------------------------------------------------------------------------------------------|
A|-------------------------------------------------------------------------------------------------|
F|-11-11-11-11-11-11-11-11-13-13-13-13-13-13-13-13-14-14-14-14-14-14-14-14-16-16-16-16-16-16-16-16-|
C|-x--x--x--x--x--x--x--x--x--x--x--x--x--x--x--x--x--x--x--x--x--x--x--x--x--x--x--x--x--x--x--x--|
G|-9--9--9--9--9--9--9--9--11-11-11-11-11-11-11-11-12-12-12-12-12-12-12-12-14-14-14-14-14-14-14-14-|
C|-------------------------------------------------------------------------------------------------|
Padge
D|-------------------------------------------------------------------------------------------------|
A|-------------------------------------------------------------------------------------------------|
F|-14-14-14-14-14-14-14-14-16-16-16-16-16-16-16-16-18-18-18-18-18-18-18-18-19-19-19-19-19-19-19-19-|
C|-x--x--x--x--x--x--x--x--x--x--x--x--x--x--x--x--x--x--x--x--x--x--x--x--x--x--x--x--x--x--x--x--|
G|-12-12-12-12-12-12-12-12-14-14-14-14-14-14-14-14-16-16-16-16-16-16-16-16-17-17-17-17-17-17-17-17-|
C|-------------------------------------------------------------------------------------------------|
...So are we Breaking Out? (BREAKING OUT!) Or are we Breaking Down? (BREAKING DOWN!)

Matt
D|------------------------------------------------------|
A|------------------------------------------------------|
F|------------------------------------------------------|
C|-4~~-------4---4~~-------4---4~~-------4--------------|
G|-4~~-4-4-4-4-4-4~~-4-4-4-4-4-4~~-4-4-4-4--------------|
C|-4~~-4-4-4-4-4-4~~-4-4-4-4-4-4~~-4-4-4-4--0-2-4-2-4-6-|
       - - -   -     - - -   -     - - -
Padge
D|------------------------------------------------------|
A|------------------------------------------------------|
F|-6~~-------6---4~~-------4---2~~-------2--------------|
C|-4~~-4-4-4-4-4-4~~-4-4-4-4-4-4~~-4-4-4-4--------------|
G|------------------------------------------------------|
C|------------------------------------------0-2-4-2-4-6-|
       - - -   -     - - -   -     - - -
...We can't blame this world forever (THIS WORLD FOREVER!)"


-Breakdown-
Matt
D|------------------------------------------------------------------------------------|
A|------------------------------------------------------------------------------------|
F|---------------------------------7-7---------------------------------------7-7------|
C|-4-4---6pbr-4-4~~~~-4-4---6pbr-4-7-7--2-2--4-4---6pbr-7-4~~~~-4-4---6pbr-4-7-7--2-2-|
G|-4-4----------------4-4----------5-5--2-2--4-4----------------4-4----------5-5--2-2-|
C|-4-4----------------4-4---------------2-2--4-4----------------4-4---------------2-2-|
Padge
D|------------------------------------------------------------------------------------|
A|------------------------------------------------------------------------------------|
F|---------------------------------7-7---------------------------------------7-7------|
C|-4-4----------------4-4----------7-7--2-2--4-4----------------4-4----------7-7--2-2-|
G|-4-4----------------4-4----------5-5--2-2--4-4----------------4-4----------5-5--2-2-|
C|-4-4----------------4-4---------------2-2--4-4----------------4-4---------------2-2-|

Matt
D|------------------------------------------------------------------------------------|
A|------------------------------------------------------------------------------------|
F|---------------------------------7-7---------------------------------------7-7------|
C|-4-4---6pbr-4-4~~~~-4-4---6pbr-4-7-7--2-2--4-4---6pbr-7-4~~~~-4-4---6pbr-4-7-7--2-2-|
G|-4-4----------------4-4----------5-5--2-2--4-4----------------4-4----------5-5--2-2-|
C|-4-4----------------4-4---------------2-2--4-4----------------4-4---------------2-2-|
Padge
D|------------------------------------------------------------------------------------|
A|------------------------------------------------------------------------------------|
F|-------4pbr-2-2~~~~-------4pbr-2-7-7-------------4pbr-6-2~~~~-------4pbr-2-7-7------|
C|-4-4----------------4-4----------7-7--2-2--4-4----------------4-4----------7-7--2-2-|
G|-4-4----------------4-4----------5-5--2-2--4-4----------------4-4----------5-5--2-2-|
C|-4-4----------------4-4---------------2-2--4-4----------------4-4---------------2-2-|

Matt & Padge
D|-------------------------------------------------------------|
A|-------------------------------------------------------------|
F|-------------------------------------------------------------|
C|-0~~---------------------------2~~---------2-------2-------2-|
G|-0~~-0~~-0~~-0~~-0~~-0~~-0-0-0-2~~-2-2-2-2-2-2-2-2-2-2-2-2-2-|
C|-0~~-0~~-0~~-0~~-0~~-0~~-0-0-0-2~~-2-2-2-2-2-2-2-2-2-2-2-2-2-|
       -   -   -   -   -   - - -     - - - -   - - -   - - -
"(Whooooooaaaaaohhhhohhh) So are we Breaking Out?

D|--------------------------------------------------------|
A|--------------------------------------------------------|
F|--------------------------------------------------------|
C|-0~~---------------------------2~~---------2--4-4--7--2-|
G|-0~~-0~~-0~~-0~~-0~~-0~~-0-0-0-2~~-2-2-2-2-2--4-4--7--2-|
C|-0~~-0~~-0~~-0~~-0~~-0~~-0-0-0-2~~-2-2-2-2-2--4-4--7--2-|
       -   -   -   -   -   - - -     - - - -
...(Whooooooaaaaaohhhhohhh) Or are we Breaking Down?

D|-------------------------------------------------------------|
A|-------------------------------------------------------------|
F|-------------------------------------------------------------|
C|-0~~---------------------------2~~---------2-------2-------2-|
G|-0~~-0~~-0~~-0~~-0~~-0~~-0-0-0-2~~-2-2-2-2-2-2-2-2-2-2-2-2-2-|
C|-0~~-0~~-0~~-0~~-0~~-0~~-0-0-0-2~~-2-2-2-2-2-2-2-2-2-2-2-2-2-|
       -   -   -   -   -   - - -     - - - -   - - -   - - -
...(Whooooooaaaaaohhhhohhh) I guess what's done is done...

D|-------------------------------------------------------------|
A|-------------------------------------------------------------|
F|-------------------------------------------------------------|
C|-0~~---------------------------2~~---------2-x-x-x-x-x-x-x-x-|
G|-0~~-0~~-0~~-0~~-0~~-0~~-0-0-0-2~~-2-2-2-2-2-x-x-x-x-x-x-x-x-|
C|-0~~-0~~-0~~-0~~-0~~-0~~-0-0-0-2~~-2-2-2-2-2-x-x-x-x-x-x-x-x-|
       -   -   -   -   -   - - -     - - - -
...(Whooooooaaaaaohhhhohhh) But We WILL OVERCOME!

Matt
D|------------------------------------------------------|
A|------------------------------------------------------|
F|------------------------------------------------------|
C|-4~~~~~~~~~~~~~~~~~~~~~~~~~~~~~~~~~~~~~~~-------------|
G|-4~~~~~~~~~~~~~~~~~~~~~~~~~~~~~~~~~~~~~~~-------------|
C|-4~~~~~~~~~~~~~~~~~~~~~~~~~~~~~~~~~~~~~~~-0-2-4-2-4-6-|
Padge
D|------------------------------------------------------|
A|------------------------------------------------------|
F|------------------------------------------------------|
C|-4~~-------4---4~~-------4---4~~-------4--------------|
G|-4~~-4-4-4-4-4-4~~-4-4-4-4-4-4~~-4-4-4-4--------------|
C|-4~~-4-4-4-4-4-4~~-4-4-4-4-4-4~~-4-4-4-4--0-2-4-2-4-6-|
       - - -   -     - - -   -     - - -
Matt
D|-------------------------------------------|
A|-------------------------------------------|
F|-------------------------------------------|
C|-4~~~~~~~~~~~~~~~~~~~~~~~~~~~~~~~~~~~~~~-0-|
G|-4~~~~~~~~~~~~~~~~~~~~~~~~~~~~~~~~~~~~~~-0-|
C|-4~~~~~~~~~~~~~~~~~~~~~~~~~~~~~~~~~~~~~~-0-|
Padge
D|-------------------------------------------|
A|-------------------------------------------|
F|-------------------------------------------|
C|-4~~-------4---4~~-------4---4~~-------4-0-|
G|-4~~-4-4-4-4-4-4~~-4-4-4-4-4-4~~-4-4-4-4-0-|
C|-4~~-4-4-4-4-4-4~~-4-4-4-4-4-4~~-4-4-4-4-0-|
       - - -   -     - - -   -     - - -
...We could blame this world for-

...ever"


-Chorus-
Matt
D||----------------------------------------------------||
A||o--------------------------------------------------o||
F||----------------------------------------------------||
C||--4~~-------4---4~~-------4---4~~-------4-7~-7-6~-6-||
G||o-4~~-4-4-4-4-4-4~~-4-4-4-4-4-4~~-4-4-4-4----------o||
C||--4~~-4-4-4-4-4-4~~-4-4-4-4-4-4~~-4-4-4-4-----------||
         - - -   -     - - -   -     - - -
Padge
D||----------------------------------------------------||
A||o--------------------------------------------------o||
F||--6~~-------6---4~~-------4---2~~-------2-6~-6-4~-4-||
C||--4~~-4-4-4-4-4-4~~-4-4-4-4-4-4~~-4-4-4-4-----------||
G||o--------------------------------------------------o||
C||----------------------------------------------------||
         - - -   -     - - -   -     - - -
-"We could blame, the world forever...
-We could just, escape together...

Matt
D|-------------------------------------------------------------------------------------------------|
A|-------------------------------------------------------------------------------------------------|
F|-11-11-11-11-11-11-11-11-13-13-13-13-13-13-13-13-14-14-14-14-14-14-14-14-16-16-16-16-16-16-16-16-|
C|-x--x--x--x--x--x--x--x--x--x--x--x--x--x--x--x--x--x--x--x--x--x--x--x--x--x--x--x--x--x--x--x--|
G|-9--9--9--9--9--9--9--9--11-11-11-11-11-11-11-11-12-12-12-12-12-12-12-12-14-14-14-14-14-14-14-14-|
C|-------------------------------------------------------------------------------------------------|
Padge
D|-------------------------------------------------------------------------------------------------|
A|-------------------------------------------------------------------------------------------------|
F|-14-14-14-14-14-14-14-14-16-16-16-16-16-16-16-16-18-18-18-18-18-18-18-18-19-19-19-19-19-19-19-19-|
C|-x--x--x--x--x--x--x--x--x--x--x--x--x--x--x--x--x--x--x--x--x--x--x--x--x--x--x--x--x--x--x--x--|
G|-12-12-12-12-12-12-12-12-14-14-14-14-14-14-14-14-16-16-16-16-16-16-16-16-17-17-17-17-17-17-17-17-|
C|-------------------------------------------------------------------------------------------------|
...So are we Breaking Out? (BREAKING OUT!) Or are we Breaking Down? (BREAKING DOWn!)

Matt
D|------------------------------------------------------|
A|------------------------------------------------------|
F|------------------------------------------------------|
C|-4~~-------4---4~~-------4---4~~-------4--------------|
G|-4~~-4-4-4-4-4-4~~-4-4-4-4-4-4~~-4-4-4-4--------------|
C|-4~~-4-4-4-4-4-4~~-4-4-4-4-4-4~~-4-4-4-4--0-2-4-2-4-6-|
       - - -   -     - - -   -     - - -
Padge
D|------------------------------------------------------|
A|------------------------------------------------------|
F|-6~~-------6---4~~-------4---2~~-------2--------------|
C|-4~~-4-4-4-4-4-4~~-4-4-4-4-4-4~~-4-4-4-4--------------|
G|------------------------------------------------------|
C|------------------------------------------0-2-4-2-4-6-|
       - - -   -     - - -   -     - - -
...We can't blame this world for-

Matt
D|--------------------------------------------------------------------------------------------|
A|--------------------------------------------------------------------------------------------|
F|--------------------------------------------------------------------------------------------|
C|-0~~~~~~~~~~~~~~~~~~~~~~~~~~~~~~~~~~~~~~~~~~~~~~~~~~~~~~~~~~~~~~~~~~~~~~~~~~~~~~~~~~~~~~~~~~|
G|-0~~~~~~~~~~~~~~~~~~~~~~~~~~~~~~~~~~~~~~~~~~~~~~~~~~~~~~~~~~~~~~~~~~~~~~~~~~~~~~~~~~~~~~~~~~|
C|-0~~~~~~~~~~~~~~~~~~~~~~~~~~~~~~~~~~~~~~~~~~~~~~~~~~~~~~~~~~~~~~~~~~~~~~~~~~~~~~~~~~~~~~~~~~|
Padge
D|--------------------------------------------------------------------------------------------|
A|-10-9---/12-10-9-10~---10-9---/12-10-9h10p9-----10-9---/12-10-9-10~--10-9---/12-10-9h10p9---|
F|------9---------------------9---------------9--------9--------------------9---------------9-|
C|--------------------------------------------------------------------------------------------|
G|--------------------------------------------------------------------------------------------|
C|---------------------0------------------------0---------------------0-----------------------|
...Everrrrrrrrrrrrrrrrrrrrrrrrrrrrrrrrrrrrrr(Foreverrrrrrrrrrrrrrrrrrrrrrrrrrrr)

Matt
D|--------------------------------------------------------------------------------|
A|---14-12----/15-14-12-14~---14-12----/15-14-12h14p12------14-12----/15-14-12-14-|
F|---------14-----------------------12-----------------14---------14--------------|
C|--------------------------------------------------------------------------------|
G|--------------------------------------------------------------------------------|
C|-0------------------------0-----------------------------0-----------------------|
Padge
D|--------------------------------------------------------------------------------|
A|---10-9-----/12-10--9-10~---10-9-----/12-10--9h10p9-------10-9-----/12-10--9-10-|
F|---------9------------------------9------------------9----------9---------------|
C|--------------------------------------------------------------------------------|
G|--------------------------------------------------------------------------------|
C|-0------------------------0-----------------------------0-----------------------|
...'Cause in the thick of darkened days, we knoooow"

Matt & Padge
D|------------------------------------|
A|------------------------------------|
F|------------------------------------|
C|------------------------------------|
G|------------------------------------|
C|-0~~~~~~~~~~~~~~~~~~~~~~~~~~~~~~~~~~|

            
            
Suggest correction
Creating personal tab
Creating personal tab
You can edit any tab online and save it as your Personal.

You can edit, replace or remove any tab part or add personal notes – all changes will be seen only by you.

Personal tabs can be accessed anytime from any device, even offline.
Learn more »
Give kudos to tab author, rate the tab!
1 2 3 4 5
comments
print report bad tab
guest
You may want to rate the tab now too:
select rating
Wanna post a correction for this tab? Suggest correction