Oops, an error
Loading. Please wait.

Cries In Vain bass

version 1
version 1

Whole song

7,796 views 3 this week
no commentswrite comment
1 2 3 4 5
1 last vote to show rating
add to favorites
×
Save as Personal and add changes to this tab that will be seen only by you. Learn more ›
×
You can save this tab as Personal to edit and correct it or add notes. All changes will be seen only by you. Learn more »
launch autoscroll
font size
0
reset
guitar tuner
backing track
0:00
0:00
edit
Autoscroll
slow
fast
+/-
esc
set tempo
stop
-------------------------------------------------------------------------------
			     Cries in Vain - Bullet For My Valentine
-------------------------------------------------------------------------------

Tabbed By: Another Star

Not me, the guy who tabbed Cries In Vain (ver 2) Guitar Pro Tab. I just put the tabs on 
and I think that these are great tabs, so they should be available to the world without 
pro! All the creds to Another Star!

Tuning: Drop C (CGCF)

Chorus x2
F|--------------------|--------------------|
C|--------------------|--------------------|
G|--------------------|--------------------|
C|--3-3-3-3-3-3-3--3--|--3-3-3-3-3-3-3--3--|

F|--------------------|--------------------|
C|--------------------|--------------------|
G|--0-0-0-0-0-0-0--0--|--0-0-0-0-0-0-0--0--|
C|--------------------|--------------------|

Last time exit with this, right before the verse
F|--------------------|
C|---3---0------------|
G|-----------3---2----|
C|--------------------|

Verse 1 (lord you know I've cried..)
F|--------------------|--------------------|
C|--------------------|--------------------|
G|--0-0-0-0-0-0-0--0--|--0-0-0-0-0-0-0--0--|
C|--------------------|--------------------|

F|--------------------|--------------------|
C|-----3-2-0----------|--------------------|
G|-----------3-5-3-2--|--0-0-0-0-0-0-0--0--|
C|--------------------|--------------------|

F|--------------------------|
C|--------------------------|
G|--0-0-0-0-0-0-0--0--0--0--|
C|--------------------------|

Verse part 2
F|----------------------|----------------------|
C|----------------------|----------------------|
G|-0--0--0--0-----------|-0--0--0--0-----------|
C|---------------7---5--|---------------7---5--|

F|--------------------|----------------------|----------------------|
C|-----2-3-2----------|----------------------|----------------------|
G|-----------3-5-3-2--|-0--0--0--0-----------|-0--0--0--0-----------|
C|--------------------|---------------7---9--|---------------7---5--|

Chorus x2 (has no one told you?...)
F|--------------------|--------------------|
C|--------------------|--------------------|
G|--------------------|--------------------|
C|--3-3-3-3-3-3-3--3--|--3-3-3-3-3-3-3--3--|

F|--------------------|--------------------|
C|--------------------|--------------------|
G|--0-0-0-0-0-0-0--0--|--0-0-0-0-0-0-0--0--|
C|--------------------|--------------------|

Exit with this, right before the verse
F|--------------------|
C|-----3-2-0---0------|
G|-----------3---3-2-0|
C|--------------------|

Verse 2 (lord I cant desguise...)
F|--------------------|--------------------|
C|--------------------|--------------------|
G|--0-0-0-0-0-0-0--0--|--0-0-0-0-0-0-0--0--|
C|--------------------|--------------------|

F|--------------------|--------------------|
C|-----3-2-0----------|--------------------|
G|-----------3-5-3-2--|--0-0-0-0-0-0-0--0--|
C|--------------------|--------------------|

F|--------------------------|
C|--------------------------|
G|--0-0-0-0-0-0-0--0--0--0--|
C|--------------------------|

Verse 2 part 2
F|----------------------|----------------------|
C|----------------------|----------------------|
G|-0--0--0--0-----------|-0--0--0--0-----------|
C|---------------7---5--|---------------7---5--|

F|--------------------|----------------------|----------------------|
C|-----2-3-2----------|----------------------|----------------------|
G|-----------3-5-3-2--|-0--0--0--0-----------|-0--0--0--0-----------|
C|--------------------|---------------7---9--|---------------7---5--|

Chorus x2 (has no one told you?..)
F|--------------------|--------------------|
C|--------------------|--------------------|
G|--------------------|--------------------|
C|--3-3-3-3-3-3-3--3--|--3-3-3-3-3-3-3--3--|

F|--------------------|--------------------|
C|--------------------|--------------------|
G|--0-0-0-0-0-0-0--0--|--0-0-0-0-0-0-0--0--|
C|--------------------|--------------------|

Exit with this, right before the bridge
F|--------------------|
C|-----3-2-0---0------|
G|-----------3---3-2-0|
C|--------------------|

brige (your cries in vain...)
F|---------------------|
C|---------------------|
G|--0----8----10----7--|
C|---------------------| x6

Solo
F|-----------------|-----------------|
C|-----------------|-----------------|
G|-----------------|-----------------|
C|--7---3---5---2--|--7---3---5---2--|

F|-------------------------------------------------|
C|-------------------------------------------------|
G|-------------------------------------------------|
C|-7-7-7-7-7-7-3-3-3-3-3-3-5-5-5-5-5-5-2-2-2-2-2-2-| x2

Chorus x2 (has no one told you?...)
F|--------------------|--------------------|
C|--------------------|--------------------|
G|--------------------|--------------------|
C|--3-3-3-3-3-3-3--3--|--3-3-3-3-3-3-3--3--|

F|--------------------|--------------------|
C|--------------------|--------------------|
G|--0-0-0-0-0-0-0--0--|--0-0-0-0-0-0-0--0--|
C|--------------------|--------------------|

Exit with this, right before the outro
F|--------------------|
C|-----3-2-0---0------|
G|-----------3---3-2-0|
C|--------------------|

Outro
F|-----------------------------------------------------|
C|-----------------------------------------------------|
G|--0-0---0-0------0-0--0-0-0--0-0-0--0-0-0--0-0-0--0--|
C|-----------------------------------------------------|

F|-----------------------------------------------------|
C|-----------------------------------------------------|
G|-----------------0-0--0-0-0--0-0-0--0-0-0--0-0-0--0--|
C|-3-3-3-3-3-3-3-3-------------------------------------| x3

F|-----------------------------------------------------|
C|-----------------------------------------------------|
G|-----------------0-0--0-0-----0-0--0-0-----0-0--0-0--|
C|-3-3-3-3-3-3-3-3-------------------------------------| x2

F|-----------------------------------------------------|
C|-----------------------------------------------------|
G|-----------------0-----------------------------------|
C|-3-3-3-3-3-3-3-3-------------------------------------|


| /  slide up
| \  slide down
| h  hammer-on
| p  pull-off
| ~  vibrato
| +  harmonic
| x  Mute note
===============================================================================

            
            
Suggest correction
Creating personal tab
Creating personal tab
You can edit any tab online and save it as your Personal.

You can edit, replace or remove any tab part or add personal notes – all changes will be seen only by you.

Personal tabs can be accessed anytime from any device, even offline.
Learn more »
Give kudos to tab author, rate the tab!
1 2 3 4 5
comments
print report bad tab
guest
You may want to rate the tab now too:
select rating
Wanna post a correction for this tab? Suggest correction