Oops, an error
Loading. Please wait.

Cries In Vain tab

version 2
version 2
4,474 views 1 this week
2 commentsread comments
1 2 3 4 5
x 5
add to favorites
×
Save as Personal and add changes to this tab that will be seen only by you. Learn more ›
×
You can save this tab as Personal to edit and correct it or add notes. All changes will be seen only by you. Learn more »
launch autoscroll
font size
0
reset
how to read this tab
guitar tuner
backing track
0:00
0:00
edit
Autoscroll
slow
fast
+/-
esc
set tempo
stop
Bullet For My Valentine

Dropped C (CGCFAD)

. - Palm Mute
~ - Let Ring
* - Harmonic
\ - Slide Down
/ - Slide Up



Intro(with wah pedal or phaser)

Guitar 2
|-----------------------------------------------------------------------|
|-----------------------------------------------------------------------|
|-----------------------------------------------------------------------|
|--10---9-------------10---9------------10---9-------------10---12---999|
|0----0---0-10-0-12-0----0---0-10-0-7-0----0---0-10-0-12-0----0----0----|
|-----------------------------------------------------------------------|
 .    .   .    .    .    .   .    .   .    .   .    .    .    .    .

Guitar 1
|----------------0~---|
|----------------6~---|
|----------------5~---|
|3-3-3-3-3-3--3--3~---| x2
|3-3-3-3-3-3--3--3~---|
|3-3-3-3-3-3--3--3~---|
 . . . . . .

Guitar 2
|------------------------------------|
|------------------------------------|
|---------------5-4---7-5---4-5---4-5|
|3-3-3-3-3-3--3-----5-----5-----5----| x2
|3-3-3-3-3-3--3----------------------|
|3-3-3-3-3-3--3----------------------|
 . . . . . .

Guitar 1
|------------------0~---|
|------------------0~---|
|2-2-2-2-2-2-2--2--4~---|
|2-2-2-2-2-2-2--2--2~---| x2
|0-0-0-0-0-0-0--0--0~---|
|-----------------------|
 . . . . . . .

Guitar 2
|------------------------------------|
|------------------------------------|
|2-2-2-2-2-2--2-5-4---7-5---4-5---4-5|
|2-2-2-2-2-2--2-----5-----5-----5----|
|0-0-0-0-0-0--0----------------------|
|------------------------------------|
 . . . . . .

Guitar 1
|----------------------3--------------|
|---------------5-3------5---3-5---3-5|
|-------------------5------5-----5----|
|3-3-3-3-3-3--3-----------------------|
|3-3-3-3-3-3--3-----------------------|
|3-3-3-3-3-3--3-----------------------|
 . . . . . .

Guitar 1
|----------------------3--------------|
|---------------5-3------5---3-5---3-5|
|2-2-2-2-2-2--2-----5------5-----5----|
|2-2-2-2-2-2--2-----------------------|
|0-0-0-0-0-0--0-----------------------|
|-------------------------------------|
 . . . . . .

Guitar 2
|------------------------------------|
|------------------------------------|
|2-2-2-2-2-2--2-5-4---7-5---4-5---4-5|
|2-2-2-2-2-2--2-----5-----5-----5----|
|0-0-0-0-0-0--0----------------------|
|------------------------------------|
 . . . . . .

Guitar 1
|-------------------------------------|
|---------------5-3----6--------------|
|2-2-2-2-2-2--2-----5-----|
|2-2-2-2-2-2--2-----------|
|0-0-0-0-0-0--0-----------------------|
|-------------------------------------|
 . . . . . .

Guitar 2
|------------------------------------|
|------------------------------------|
|2-2-2-2-2-2--2-5-4---5--|
|2-2-2-2-2-2--2-----5----|
|0-0-0-0-0-0--0----------------------|
|------------------------------------|
 . . . . . .

Verse
Guitar 1
|------------------|-----|------------------|-------------------|
|------------------|-----|------------------|-6\5---------------|
|2-2-2-2-2-2-2--2--|-----|2-2-2-2-2-2-2--2--|-----7-5/7\5\4-----|
|2-2-2-2-2-2-2--2--|-----|2-2-2-2-2-2-2--2—-|-------------------|
|0-0-0-0-0-0-0--0--|-----|0-0-0-0-0-0-0--0--|-------------------|
|------------------|-----|------------------|-------------------|
 . . . . . .               . . . . . .        *

|------------------|-----|------------------|----------------|
|------------------|-----|------------------|----------------|
|2-2-2-2-2-2-2--2--|-----|2-2-2-2-2-2-2--2--|-2-2------------|
|2-2-2-2-2-2-2--2--|-----|2-2-2-2-2-2-2--2--|-2-2------------|
|0-0-0-0-0-0-0--0--|-----|0-0-0-0-0-0-0--0--|-0-0------------|
|------------------|-----|------------------|----------------|
 . . . . . .              . . . . . .         .

Guitar 2
|------------------|-----|------------------|-------------------|
|------------------|-----|------------------|-------------------|
|2-2-2-2-2-2-2--2--|-----|2-2-2-2-2-2-2--2--|-------------------|
|2-2-2-2-2-2-2--2--|-----|2-2-2-2-2-2-2--2—-|-3\2-0-------------|
|0-0-0-0-0-0-0--0--|-----|0-0-0-0-0-0-0--0--|-------3/5\3\2-----|
|------------------|-----|------------------|-------------------|
 . . . . . .             . . . . . .          *

|------------------|-----|------------------|----------------|
|------------------|-----|------------------|----------------|
|2-2-2-2-2-2-2--2--|-----|2-2-2-2-2-2-2--2--|-2-2------------|
|2-2-2-2-2-2-2--2--|-----|2-2-2-2-2-2-2--2--|-2-2------------|
|0-0-0-0-0-0-0--0--|-----|0-0-0-0-0-0-0--0--|-0-0------------|
|------------------|-----|------------------|----------------|
 . . . . . .              . . . . . .        .

Guitar 1
|-----------------------------------------------------|
|-----------------------------------------------------|
|------2------------------2-----------2/3\2-----------|
|2-2-2-2--7--5V-----2-2-2-2--7--5V---------3/5\3\2----| x2
|0-0-0-0------------0-0-0-0---------------------------|
|-----------------------------------------------------|
 . . .              . . .             *  


Guitar 2
|-----------------------------------------------------|
|-----------------------------------------------------|
|------2--5--4V-----------2--5--4V----2/3\2-----------|
|2-2-2-2------------2-2-2-2-----------------3/5\3\2---| x2
|0-0-0-0------------0-0-0-0---------------------------|
|-----------------------------------------------------|
 . . .              . . .             *

Chorus
Both Guitars
|----------------0~---|
|----------------6~---|
|----------------5~---|
|3-3-3-3-3-3--3--3~---| x2
|3-3-3-3-3-3--3--3~---|
|3-3-3-3-3-3--3--3~---|
 . . . . . .

Guitar 1
|------------------0~---|
|------------------0~---|
|2-2-2-2-2-2-2--2--4~---|
|2-2-2-2-2-2-2--2--2~---| x2
|0-0-0-0-0-0-0--0--0~---|
|-----------------------|
 . . . . . . .

Guitar 2
|--------------------------------|
|--------------------------------|
|5-----4---4-----5-----4---4-----|
|--5-5---5---3-5---5-5---5---3-5-|
|--------------------------------|
|--------------------------------|
   . .   .   . .   . .   .   . .

Both Guitars
|----------------0~---|
|----------------6~---|
|----------------5~---|
|3-3-3-3-3-3--3--3~---| x2
|3-3-3-3-3-3--3--3~---|
|3-3-3-3-3-3--3--3~---|
 . . . . . .

Guitar 1
|----------------0~----------------------|
|----------------0~----------------------|
|-------------2--4~-----------------2--2-|
|2-2-2-2-2-2--2--2~---2-2--2-2-2-2--2--2-|
|0-0-0-0-0-0--0--0~---0-0--0-0-0-0--0--0-|
|----------------------------------------|
 . . . . . .          . .  . . . .

Guitar 2
|------------------------------------------------|
|------------------------------------------------|
|5-----4---4-----5-----4---4-------5-----4---4---|
|--5-5---5---3-5---5-5---5---3-5-----5-5---5---3-|
|------------------------------------------------|
|------------------------------------------------|

Both Guitars
|----------------|
|----------------|
|--------------2-|
|3-2-0---0-----2-|
|------3---3-2-0-|
|----------------|

Guitar 2 Intro
VERSE
CHORUS

Bridge
Guitar 1
|-------------------------------------------------|
|-------------------------------------------------|
|-------------------------------------------------|
|7-7-7-7-7-7-7-7-7-7-7-7-7-7-7-7-7-7--7-7-7-7-7-7-| X7
|0-0-0-0-0-0-8-8-8-8-8-8-101010101010-7-7-7-7-7-7-|
|-------------------------------------------------|
 . . . . . . . . . . . . . . . . .  . . . . . .

Guitar 2(Enter on 5th time)
|-------------------------------------------------|
|-------------------------------------------------|
|5-5-5-5-5-5-2-2-2-2-2-2-4-4-4-4-4-4--------------|
|7-7-7-7-7-7-3-3-3-3-3-3-5-5-5-5-5-5--5-5-5-5-5-5-| x3
|-------------------------------------7-7-7-7-7-7-|
|-------------------------------------------------|
 . . . . . . . . . . . . . . . . . .  . . . . . .

Guitar 1
|-----------------------------------------|
|-----------------------------------------|
|-----------------------------------------|
|7-7-7-7-7-7-7-7-7-7-7-7-7-7-7-7-7-7--7---|
|0-0-0-0-0-0-8-8-8-8-8-8-101010101010-7---|
|-----------------------------------------|
 . . . . . . . . . . . . . . . . . .

Guitar 2
|------------------------------------------|
|------------------------------------------|
|5-5-5-5-5-5-2-2-2-2-2-2-4-4-4-4-4-4-------|
|7-7-7-7-7-7-3-3-3-3-3-3-5-5-5-5-5-5--5----|
|-------------------------------------7----|
|------------------------------------------|
 . . . . . . . . . . . . . . . . . .

Guitar 1
|--------------------------------------|
|--------------------------------------|
|--------------------------------------|
|-7~-------3~-------5~--------2~-------| x2
|-7~-------3~-------5~--------2~-------|
|-7~-------3~-------5~--------2~-------|

Guitar 2
|------------------------------------------------------------|
|------------------------------------------------------------|
|----9---9-10-----9---9-10-------9----9-10-10/12-10-9-10-9-7-|
|7-7---7-----------------------------------------------------|
|-------------8-8---8------10-10---10------------------------|
|------------------------------------------------------------|

Guitar 1
|----------------------------------------------------------------|
|-----8--8/10-----8---8/10-------8----8/10-----------------------|
|-------------------------------------------9-7-h9p7\5--7--5-4---|
|1010--10-----7-7---7------9--9-----9----------------------------| x2
|----------------------------------------------------------------|
|----------------------------------------------------------------|

Guitar 2
|-----------------------------------------------------------------|
|-----------------------------------------------------------------|
|----9---9-10-----9---9-10-------9----9-10-12-10h12p10\9-10-9-7---|
|7-7---7----------------------------------------------------------|x2
|-------------8-8---8------10-10---10-----------------------------|
|-----------------------------------------------------------------|

Both Guitars
|------------|
|------------|
||
||
|------------|
|------------|

CHORUS

Guitar 2 play intro x5

Guitar 1 Enter on second time of intro riff
|-----------------------------------------------------------|
|-----------------------------------------------------------|
|2-2--2-2-2--2-2-2--2-2-2--2--2-2--2-2-2--2-----------------|
|2-2--2-2-2--2-2-2--2-2-2--2--2-2--2-2-2--2-3-3-3-3-3-3-3-3-|  X4
|0-0--0-0-0--0-0-0--0-0-0--0--0-0--0-0-0--0-3-3-3-3-3-3-3-3-|
|-------------------------------------------3-3-3-3-3-3-3-3-|
 . .  . . .  . . .  . . .  .  . .  . . .  . . . . . . . . .
               Play each time with less Palm Mute

Both Guitars
|-----------------------|
|----------5-5-5-5-5-5--|
|2-2--2-2---------------|
|2-2--2-2---------------| X3
|0-0--0-0---------------|
|-----------------------|
           * * * * * *

|-----------------|
|-----------------|
|-----------------|
|-3-3-3-3-3---3---|
|-3-3-3-3-3h5-3---|
|-3-3-3-3-3---3---|

Guitar 1
|-----------------------|
|----------5-5-5-5-5-5--|
|2-2--2-2---------------|
|2-2--2-2---------------| X3
|0-0--0-0---------------|
|-----------------------|
           * * * * * *

|----------------|
|----------------|
|----------------|
|3-3-3-3-3-3-3-3-|
|3-3-3-3-3-3-3-3-|
|3-3-3-3-3-3-3-3-|
 . . . . . . . .

Guitar 2
|-----------------------|
|-----------------------|
|2-2--2-2--5-5-5-5-5-5--|
|2-2--2-2---------------| X3
|0-0--0-0---------------|
|-----------------------|
           * * * * * *
|----------------|
|----------------|
|----------------|
|3-3-3-3-3-3-3-3-|
|3-3-3-3-3-3-3-3-|
|3-3-3-3-3-3-3-3-|
 . . . . . . . .

Both Guitars
|---|
|---|
|-2-|
|-2-|
|-0-|
|---|

Thanks !,,! BFMV !,,! any questions ask me at rosslacey1233@hotmail.com

Sorry my first tab had to redo was some mistakes but thanks again hope its right =)

            
            
Suggest correction
Creating personal tab
Creating personal tab
You can edit any tab online and save it as your Personal.

You can edit, replace or remove any tab part or add personal notes – all changes will be seen only by you.

Personal tabs can be accessed anytime from any device, even offline.
Learn more »
comments
print report bad tab
2 comments total.
0 reply
badhabit000 30 Feb 21, 2007 12:51 PM

dude this tab is hella rite better then the first one :D


5 stars from dude good job been looking for the breakdown part everywhere

0 reply
ReverendPippin 10 Jul 09, 2008 12:50 PM

This is a great tab thanks

guest
You may want to rate the tab now too:
select rating
Wanna post a correction for this tab? Suggest correction