Oops, an error
Loading. Please wait.

Cries In Vain tab

version 5
version 5
3,034 views 3 this week
no commentswrite comment
1 2 3 4 5
x 5
add to favorites
×
Save as Personal and add changes to this tab that will be seen only by you. Learn more ›
×
You can save this tab as Personal to edit and correct it or add notes. All changes will be seen only by you. Learn more »
launch autoscroll
font size
0
reset
how to read this tab
guitar tuner
backing track
0:00
0:00
edit
Autoscroll
slow
fast
+/-
esc
set tempo
stop
-----------------------------------------------------------------------------
                  Bullet For My Valentine - Cries In Vain
-----------------------------------------------------------------------------
Tabbed by:Metalcoreking
Email:Matthessell@live.com

Tuning:CGCFAD

INTRO
D|----------------------------------------------------------------------(x2)|
A|--------------------------------------------------------------------------|
F|--------------------------------------------------------------------------|
C|---10---9---5---7----10---9---5---------10---9---5---7----12---10---9-9-9-|
G|-0----0---0---0----0----0---0---0-7---0----0---0---0----0----0----0-------|
C|--------------------------------------------------------------------------|

D|--------0--------------------------------0--------------------------------|
A|--------6--------------------------------6--------------------------------|
F|--------5--5-4---7-5---4-5---4-5---------5--5-4---7-5---4-5---4-5---------|
C|-3333-3-3------5-----5-----5------3333-3-3------5-----5-----5-------------|
G|-3333-3-3-------------------------3333-3-3--------------------------------|
C|-3333-3-3-------------------------3333-3-3--------------------------------|
 | xxxx                             xxxx                                    |
D|--------0--------------------------------0----------------------------(x2)|
A|--------0--------------------------------0--------------------------------|
F|-2222-2-4--5-4---7-5---4-5---4-5--2222-2-4--5-4---7-5---4-5---4-5---------|
C|-2222-2-2------5-----5-----5------2222-2-2------5-----5-----5-------------|
G|-0000-0-0-------------------------0000-0-0--------------------------------|
C|--------------------------------------------------------------------------|
   xxxx                             xxxx

VERSE
D|--------------------------------------------------------------------------|
A|--------------------------------------------------------------------------|
F|-2222-2-2-2222-2-2---------------2222-2-2-2222-2-2--2---------------------|
C|-2222-2-2-2222-2-2-3-2-----------2222-2-2-2222-2-2--2---------------------|
G|-0000-0-0-0000-0-0-----5-3-5-3-2-0000-0-0-0000-0-0--0---------------------|
C|--------------------------------------------------------------------------|
 | xxxx     xxxx                   xxxx     xxxx                            |
D|--------------------------------------------------------------------------|
A|--------------------------------------------------------------------------|
F|--------5-4--------5-4------------------------5-7--------5-4--------------|
C|2-2-2-2----2-2-2-2-----3-2------------2-2-2-2----2-2-2-2-----3-2----------|
G|0-0-0-0----0-0-0-0---------5-3-5-3-2--0-0-0-0----0-0-0-0---------5-3-5-3-2|
C|--------------------------------------------------------------------------|

CHORUS
D|--------0--------------------------------0--------------------------------|
A|--------6--------------------------------6--------------------------------|
F|--------5--------------------------------5--------------------------------|
C|-3333-3-3-------------------------3333-3-3--------------------------------|
G|-3333-3-3-------------------------3333-3-3--------------------------------|
C|-3333-3-3-------------------------3333-3-3--------------------------------|
 | xxxx                             xxxx                                    |
D|-----------------------------------------------------(x2)|----------------|
A|---------------------------------------------------------|----------------|
F|-5-----4---4---5-----4---4---5-----4---4---5-----4---4---|---------------2|
C|---5-5---5---5---5-5---5---5---5-5---5---5---5-5---5---5-|-3-2-----------2|
G|---------------------------------------------------------|-----5-3-5-3-2-0|
C|---------------------------------------------------------|----------------|
   x x x x x x x x x x x x x x x x x x x x x x x x x x x x

INTRO (x1)

VERSE

CHORUS

BREAKDOWN
D|----------------------------------------------------------------------(x6)|
A|--------------------------------------------------------------------------|
F|--------------------------------------------------------------------------|
C|-7-7-7-7-7-7-7-7---7-7-7-7-7-7-7-7---7-7-7-7-7-7-7-7----7-7-7-7-7-7-7-7---|
G|-0-0-0-0-0-0-0-0---8-8-8-8-8-8-8-8---1010101010101010---7-7-7-7-7-7-7-7---|
C|--------------------------------------------------------------------------|
   x x x x x x x x   x x x x x x x x   x x x x x x x x    x x x x x x x x

SOLO
D|----------------------------------------------------------------------(x2)|
A|--------------------------------------------------------------------------|
F|-----9---9-10-----9---9-10-------9----9-10/12-10-9-10-9-7-----------------|
C|-7-7---7------------------------------------------------------------------|
G|--------------8-8---8------10-10---10-------------------------------------|
C|--------------------------------------------------------------------------|
 |                                                                          |
D|----------------------------------------------------------------------(x2)|
A|--------------------------------------------------------------------------|
F|-----9---9-10---------9---9-10-------9----9-10/12-10h12p10-9-10-9-7-------|
C|-7-7---7------------------------------------------------------------------|
G|--------------8-8---8------10-10---10-------------------------------------|
C|--------------------------------------------------------------------------|

CHORUS

INTRO

OUTRO
D|----------------------------------------------------------------------(x4)|
A|--------------------------------------------------------------------------|
F|-2-2--2-2-2--2-2-2--2-2-2--2-2-2--2-2-2--2--------------------------------|
C|-2-2--2-2-2--2-2-2--2-2-2--2-2-2--2-2-2--2--3-3-3-3--5-5-5-5--------------|
G|-0-0--0-0-0--0-0-0--0-0-0--0-0-0--0-0-0--0--3-3-3-3--5-5-5-5--------------|
C|--------------------------------------------3-3-3-3--5-5-5-5--------------|
 | x x  x x x  x x x  x x x  x x x  x x x  x  x x x x  x x x x              |            
                                                              |
D|------------------|----------------(1st)|----------------------------(2nd)|
A|--------5TREMELO--|---------------------|---------------------------------|
F|-2-2-2------------|---------------------|----------------------2----------|
C|-2-2-2------------|--3-3-3-3-3-3-3-3----|-----3-3-3-3-3-3-3-3--2----------|
G|-0-0-0------------|--3-3-3-3-3-3-3-3----|-----3-3-3-3-3-3-3-3--0----------|
C|--------------(x3)|--3-3-3-3-3-3-3-3----|-----3-3-3-3-3-3-3-3-------------|
                                                x x x x x x x x
************************************

| /   slide up
| \   slide down
| h   hammer-on
| p   pull-off
| ~   vibrato
| +   harmonic
| x   Mute note
| b   Bend
| pb  Pre-bend
| br  Bend release
| pbr Pre-bend release
| brb Bend release bend

************************************

            
            
Suggest correction
Creating personal tab
Creating personal tab
You can edit any tab online and save it as your Personal.

You can edit, replace or remove any tab part or add personal notes – all changes will be seen only by you.

Personal tabs can be accessed anytime from any device, even offline.
Learn more »
comments
print report bad tab
guest
You may want to rate the tab now too:
select rating
Wanna post a correction for this tab? Suggest correction