Oops, an error
Loading. Please wait.
We have an official Deliver Us From Evil tab made by UG professional guitarists. Check out the tab »
×
31,466 views 1 this week
6 commentsread comments
1 2 3 4 5
x 6
add to favorites
×
Save as Personal and add changes to this tab that will be seen only by you. Learn more ›
×
You can save this tab as Personal to edit and correct it or add notes. All changes will be seen only by you. Learn more »
launch autoscroll
font size
0
reset
how to read this tab
guitar tuner
backing track
0:00
0:00
edit
Autoscroll
slow
fast
+/-
esc
set tempo
stop
Author
Difficulty
-------------------------------------------------------------------------------
                             Deliver Us From Evil - Bullet For My Valentine
-------------------------------------------------------------------------------
Tabbed by: Brett
Email:irishfool@myway.com

EVEN THOUGH THIS SAYS INTRO I WILL PUT THE WHOLE SONG ON HERE!

INTRO x 2( second time through play second ending)
The first time through only one guitar plays then during the second time another guitar
with it...

*update.... 2/11/08*
my friend just rememinded me that they play in standard D tunning in this album and this 
right in that tunning soo...
im adding more to this tab.. not just the intro..

Tuning: C G C F A D

|--------------------------------------------------------------------------|
|--------------------------------------------------------------------------|
|------5-----5-----5-----5-----5---5-7---7-----7-----7-----7-----7---7-9---|
|------7-----7-----7-----7-----7---7-7---9-----9-----9-----9-----9---9-9---|
|------0-0-0-0-0-0-0-0-0-0-0-0-0-0-0-0-0-0-0-0-0-0-0-0-0-0-0-0-0-0-0-0-0-0-|
|--------------------------------------------------------------------------|
PM       . .   . .   . .   . .   .     .   . .   . .   . .   . .   .     .


CONTINUED......                                       ENDING 1| ENDING 2
|---------------------------------------------------|---------|---------|
|---------------------------------------------------|---------|---------|
|-4-----4-----4-----4-----4---4-5---5-----5-----5---|-7-5-4-5-|--4~-----|
|-5-----5-----5-----5-----5---5-5---7-----7-----7---|-9-7-5-7-|--5~-----|
|-0-0-0-0-0-0-0-0-0-0-0-0-0-0-0-0-0-0-0-0-0-0-0-0-0-|-0-0-0-0-|--0~-----|
|---------------------------------------------------|---------|---------|
PM  . .   . .   . .   . .   .     .   . .   . .   .

Verse Guitar 1
|-------------------------------------------------------------|
|-------------------------------------------------------------|
|-------------------7777777-555-999-7777777-------------------|
|--11111111-3333333-xxxxxxx-xxx-xxx-xxxxxxx-11111111-3333333--|
|--11111111-3333333-5555555-333-777-5555555-11111111-3333333--|
|--11111111-3333333-------------------------11111111-3333333--|

Then
|--------------------------------------------------------------------------|
|--------------------------------------------------------------------------|
|------5-----5-----5-----5-----5---5-7---7-----7-----7-----7-----7---7-9---|
|------7-----7-----7-----7-----7---7-7---9-----9-----9-----9-----9---9-9---|
|------0-0-0-0-0-0-0-0-0-0-0-0-0-0-0-0-0-0-0-0-0-0-0-0-0-0-0-0-0-0-0-0-0-0-|
|--------------------------------------------------------------------------|
PM       . .   . .   . .   . .   .     .   . .   . .   . .   . .   .     .


CONTINUED......
|---------------------------------------------------|---------|
|---------------------------------------------------|---------|
|-4-----4-----4-----4-----4---4-5---5-----5-----5---|-7-5-4-5-|
|-5-----5-----5-----5-----5---5-5---7-----7-----7---|-9-7-5-7-|
|-0-0-0-0-0-0-0-0-0-0-0-0-0-0-0-0-0-0-0-0-0-0-0-0-0-|-0-0-0-0-|
|---------------------------------------------------|---------|
PM  . .   . .   . .   . .   .     .   . .   . .   .


After that do this

|--------------------------------------------------------------------------|
|--------------------------------------------------------------------------|
|------5-----5-----5-----5-----5---5-7---7-----7-----7-----7-----7---7-9---|
|------7-----7-----7-----7-----7---7-7---9-----9-----9-----9-----9---9-9---|
|------0-0-0-0-0-0-0-0-0-0-0-0-0-0-0-0-0-0-0-0-0-0-0-0-0-0-0-0-0-0-0-0-0-0-|
|--------------------------------------------------------------------------|
PM       . .   . .   . .   . .   .     .   . .   . .   . .   . .   .     .

|---------------------------------------------------|
|---------------------------------------------------|
|-4-----4-----4-----4-----4---4-5---5-----5-----5---|
|-5-----5-----5-----5-----5---5-5---7-----7-----7---|x4
|-0-0-0-0-0-0-0-0-0-0-0-0-0-0-0-0-0-0-0-0-0-0-0-0-0-|
|---------------------------------------------------|
PM  . .   . .   . .   . .   .     .   . .   . .   .


Guitar 2 (starts in on the third time of the above and plays until the end of it)
|-----------------------------------------------------------------|
|-----------------------------------------------------------------|
|-----------------------------------------------------------------|
|-----------5-----------1---------------3-----------0---3-2-0-----|
|---5-5-5-5-5---1-1-1-1-1-------3-3-3-3-3---0-0-0-0-0---------3---|
|---5-5-5-5-5---1-1-1-1-1-------3-3-3-3-3---0-0-0-0-0-------------|
    . . . .     . . . .         . . . .     . . . .


|-------------------------------------------------------------|
|-------------------------------------------------------------|
|-------------------------------------------------------------|
|---1----3----5----7-8----------------------------------------|
|---1----3----5----7-8----------------------------------------|
|---1----3----5----7-8----------------------------------------|


Pre chorus
Guitar 1
|-------------------------------------------------------------|
|------3-2----------------------------------------------------|
|----------3------7--5--3-------------------------------------|
|---1---------3------------5----------7-7-8-8-----------------|
|---1---------3------------5-5-5-5-5--7-7-8-8-----------------|
|---1---------3------------5-5-5-5-5--7-7-8-8-----------------|
                             . . . .

|-------------------------------------------------------------|
|------3-2----------------------------------------------------|
|----------3------7--5--3-------------------------------------|
|---1---------3------------5-5-5-5-5--8-8-8-8-----------------|
|---1---------3------------5-5-5-5-5--8-8-8-8-----------------|
|---1---------3------------5-5-5-5-5--8-8-8-8-----------------|

Chorus
Guitar 1

|-------------------------------------------------------------|
|-------------------------------------------------------------|
|-------------------7777777-555-999-7777777-------------------|
|--11111111-3333333-xxxxxxx-xxx-xxx-xxxxxxx-11111111-3333333--|
|--11111111-3333333-5555555-333-777-5555555-11111111-3333333--|
|--11111111-3333333-------------------------11111111-3333333--|



| /  slide up
| \  slide down
| h  hammer-on
| p  pull-off
| ~  vibrato
| +  harmonic
| x  Mute note
===============================================================================
Suggest correction
Creating personal tab
Creating personal tab
You can edit any tab online and save it as your Personal.

You can edit, replace or remove any tab part or add personal notes – all changes will be seen only by you.

Personal tabs can be accessed anytime from any device, even offline.
Learn more »
comments
print report bad tab
6 comments total. Showing first comments.
0 reply
Boxcar Willey 10 Feb 07, 2008 09:01 AM

awesome ive been waiting for a week for this

0 reply
davidboybest 10 Apr 06, 2008 06:48 AM

nice try but it just does not sound right and they do play in drop c in the hole album, so thats why it does not sound right

0 reply
HyperBoy2519 50 Apr 20, 2008 10:44 AM

move anything with chords up two frets and its fine

guest
You may want to rate the tab now too:
select rating
Wanna post a correction for this tab? Suggest correction