Oops, an error
Loading. Please wait.
We have an official Deliver Us From Evil tab made by UG professional guitarists. Check out the tab »
×
17,615 views 9 this week
8 commentsread comments
1 2 3 4 5
x 5
add to favorites
×
Save as Personal and add changes to this tab that will be seen only by you. Learn more ›
×
You can save this tab as Personal to edit and correct it or add notes. All changes will be seen only by you. Learn more »
launch autoscroll
font size
0
reset
how to read this tab
guitar tuner
backing track
0:00
0:00
edit
Autoscroll
slow
fast
+/-
esc
set tempo
stop
Author
               ------------
Bullet For My Valentine / Deliver Us From Evil
               ------------

Tuning: C G C F A D

. = Palm Muted


Intro Guitar 1 ( Haven't tabbed Guitar 2 yet =/ )
|-------------------------------------------------------------|
|-------------------------------------------------------------|
|-----7----7----7----7----7----7---7---8----8----8----8-------|
|-----5----5----5----5----5----5---5---5----5----5----5-------|
|-------00---00---00---00---00---0---0---00---00---00---------|
|-------------------------------------------------------------|


|-------------------------------------------------------------|
|-------------------------------------------------------------|
|------8---7---5----5----5----5----5---3---5---7----7----7----|
|------5---5---5----5----5----5----5---5---5---5----5----5----|
|---00---0---0---00---00---00---00---00--0---0---00---00------|
|-------------------------------------------------------------|


|-------------------------------------------------------------|
|-------------------------------------------------------------|
|------7---8--7--5--3-----------------------------------------|
|------5---5--5--5--5-----------------------------------------|
|---00---0----------------------------------------------------|
|-------------------------------------------------------------|


Verse Guitar 1
|-------------------------------------------------------------|
|-------------------------------------------------------------|
|--------------------------------7-7-7-7-5-5-5-5-7-7-7-7------|
|--1-1-1-1-1-1-1-1-3-3-3-3-3-3-3------------------------------|
|--1-1-1-1-1-1-1-1-3-3-3-3-3-3-3-5-5-5-5-3-3-3-3-5-5-5-5------|
|--1-1-1-1-1-1-1-1-3-3-3-3-3-3-3------------------------------|

Guitar 1 
|-------------------------------------------------------------|
|-------------------------------------------------------------|
|-----7----7----7----7----7----7---7---8----8----8----8-------|
|-----5----5----5----5----5----5---5---5----5----5----5-------|
|-------00---00---00---00---00---0---0---00---00---00---------|
|-------------------------------------------------------------|


|-------------------------------------------------------------|
|-------------------------------------------------------------|
|------8---7---5----5----5----5----5---3---5---7----7----7----|
|------5---5---5----5----5----5----5---5---5---5----5----5----|
|---00---0---0---00---00---00---00---00--0---0---00---00------|
|-------------------------------------------------------------|

Guitar 2 
|-------------------------------------------------------------|
|-------------------------------------------------------------|
|-------------------------------------------------------------|
|-----------5-----------1-----------3-----------0---3-2-0-----|
|---5-5-5-5-5---1-1-1-1-1---3-3-3-3-3---0-0-0-0-0---------3---|
|---5-5-5-5-5---1-1-1-1-1---3-3-3-3-3---0-0-0-0-0-------------|
    . . . .     . . . .     . . . .     . . . . 


|-------------------------------------------------------------|
|-------------------------------------------------------------|
|-------------------------------------------------------------|
|---1----3----5----7-8-----(Gotta tab this part yet)----------|
|---1----3----5----7-8----------------------------------------|
|---1----3----5----7-8----------------------------------------|


Pre chorus
Guitar 1
|-------------------------------------------------------------|
|------3-2----------------------------------------------------|
|----------3------7--5--3-------------------------------------|
|---1---------3------------5----------7-7-8-8-----------------|
|---1---------3------------5-5-5-5-5--7-7-8-8-----------------|
|---1---------3------------5-5-5-5-5--7-7-8-8-----------------|
                             . . . .

|-------------------------------------------------------------|
|------3-2----------------------------------------------------|
|----------3------7--5--3-------------------------------------|
|---1---------3------------5-5-5-5-5--8-8-8-8-----------------|
|---1---------3------------5-5-5-5-5--8-8-8-8-----------------|
|---1---------3------------5-5-5-5-5--8-8-8-8-----------------|

Chorus
Guitar 1

|-------------------------------------------------------------|
|-------------------------------------------------------------|
|--------------------------------7-7-7-7-5-5-5-5-7-7-7-7------|
|--1-1-1-1-1-1-1-1-3-3-3-3-3-3-3------------------------------| 
|--1-1-1-1-1-1-1-1-3-3-3-3-3-3-3-5-5-5-5-3-3-3-3-5-5-5-5------|
|--1-1-1-1-1-1-1-1-3-3-3-3-3-3-3------------------------------|


|-------------------------------------------------------------|
|-------------------------------------------------------------|
|-------------------------------------------------------------|
|--1-1-1-1-1-1-1-1-3-3-3-3-3-3-3------------------------------| 
|--1-1-1-1-1-1-1-1-3-3-3-3-3-3-3------------------------------|
|--1-1-1-1-1-1-1-1-3-3-3-3-3-3-3------------------------------|

And so on, still incomplete. Enjoy people =)

            
            
Suggest correction
Creating personal tab
Creating personal tab
You can edit any tab online and save it as your Personal.

You can edit, replace or remove any tab part or add personal notes – all changes will be seen only by you.

Personal tabs can be accessed anytime from any device, even offline.
Learn more »
comments
print report bad tab
8 comments total. Showing first comments.
-1 reply
travis012345678 78 Feb 12, 2008 02:08 PM

nevermind, that's not a 2 4 it's 4 4.
know what I mean?

-2 reply
travis012345678 78 Feb 12, 2008 02:09 PM

and all those fives are supposed to be 6's

+1 reply
travis012345678 78 Feb 12, 2008 02:42 PM

Gah My tuning was wrong, it's one up from that.

|-------------------------------------------------------------|
|-------------------------------------------------------------|
|-----9----9----9----9----9----9---9---9----10--10----10------|
|-----7----7----7----7----7----7---7---7----7----7----7-------|
|-------------------------------------------------------------|
|-------------------------------------------------------------|


|-------------------------------------------------------------|
|-------------------------------------------------------------|
|------10--10--9----7----7----7----7---7---7---7----3-/-7-----|
|------7---7---7----5----5----5----5---5---5---5----3---5-----|
|-------------------------------------------------------------|
|-------------------------------------------------------------|

guest
You may want to rate the tab now too:
select rating
Wanna post a correction for this tab? Suggest correction