Oops, an error
Loading. Please wait.

Deliver Us From Evil Tab

version 1
version 1

Whole song

137,183 views 75 this week
25 commentsread comments
1 2 3 4 5
x 46
add to favorites
launch autoscroll
font size
0
reset
how to read this tab
guitar tuner
Autoscroll
slow
fast
+/-
esc
set tempo
stop
Help us to improve Ultimate-Guitar.com Take our survey!
×
Author
Tuning
D G C F A D
Tuning: D G C F A D 

[Guitar 1]

[Intro]
D|-----------------------------------------------------------------------------|
A|-----------------------------------------------------------------------------|
F|-9------9------9------9------9----9----10-----10-----10-----10-----10---9----|
C|-10-----10-----10-----10-----10---10---10-----10-----10-----10-----10---10---|
G|----0-0----0-0----0-0----0-0----0----0----0-0----0-0----0-0----0-0----0----0-|
D|-----------------------------------------------------------------------------|
     
D|----------------------------------------------------|    
A|----------------------------------------------------|    
F|-7-----7-----7-----7-----5---7---9------9------9----|    x2
C|-9-----9-----9-----9-----7---9---10-----10-----10---|    
G|---0-0---0-0---0-0---0-0---0---0----0-0----0-0----0-|    
D|----------------------------------------------------|    

(play in the end the intro the first time)
D|--------------|
A|--------------|
F|-10--9---7--5-|  
C|-10--10--9--7-|
G|--------------|
D|--------------|

(and the second time)
D|-----|
A|-----|
F|-7---|
C|-9---|
G|-----|
D|-----|

[Chorus]
D|--------------------------------------------------------------------------------|
A|--------------------------------------------------------------------------------|
F|------------------------------------------------9---9-9-9-9-9-9-9-9-9-9-9-9-9-9-|
C|-3--3-3--3-3--3-3-3--3--5--5-5-5--5-5--5-5-5-5--x---x-x-x-x-x-x-x-x-x-x-x-x-x-x-|
G|-3--3-3--3-3--3-3-3--3--5--5-5-5--5-5--5-5-5-5--7---7-7-7-7-7-7-7-7-7-7-7-7-7-7-|
D|-1--1-1--1-1--1-1-1--1--3--3-3-3--3-3--3-3-3-3----------------------------------|

D|-------------------------------------------------------------------------------------|
A|-------------------------------------------------------------------------------------|
F|-7-7-7-7-7-7-7-7-7/9-9-9-9-9-9-9-9---------------------------------------------------|
C|-x-x-x-x-x-x-x-x-x/x-x-x-x-x-x-x-x--3--3-3-3--3-3--3-3-3-3-3--5--5-5-5--5--5-5-5-5-5-|
G|-5-5-5-5-5-5-5-5-5/7-7-7-7-7-7-7-7--3--3-3-3--3-3--3-3-3-3-3--5--5-5-5--5--5-5-5-5-5-|
D|------------------------------------1--1-1-1--1-1--1-1-1-1-1--3--3-3-3--3--3-3-3-3-3-|

[Post-Chorus]
D|-----------------------------------------------------------------------------|
A|-----------------------------------------------------------------------------|
F|-9------9------9------9------9----9----10-----10-----10-----10-----10---9----|
C|-10-----10-----10-----10-----10---10---10-----10-----10-----10-----10---10---|
G|----0-0----0-0----0-0----0-0----0----0----0-0----0-0----0-0----0-0----0----0-|
D|-----------------------------------------------------------------------------|
 
D|--------------------------------------------------------------|    
A|--------------------------------------------------------------|    
F|-7-----7-----7-----7-----5---7---9------9------9----10-9--7-5-|   
C|-9-----9-----9-----9-----7---9---10-----10-----10---10-10-9-7-|    
G|---0-0---0-0---0-0---0-0---0---0----0-0----0-0----0-----------|    
D|--------------------------------------------------------------|    

[Verse]
D|-----------------------------------------------------------------------------|
A|-----------------------------------------------------------------------------|
F|-9------9------9------9------9----9----10-----10-----10-----10-----10---9----|
C|-10-----10-----10-----10-----10---10---10-----10-----10-----10-----10---10---|
G|----0-0----0-0----0-0----0-0----0----0----0-0----0-0----0-0----0-0----0----0-|
D|-----------------------------------------------------------------------------|

D|--------------------------------------------------------------|    
A|--------------------------------------------------------------|    
F|-7-----7-----7-----7-----5---7---9------9------9----10-9--7-5-|   x4
C|-9-----9-----9-----9-----7---9---10-----10-----10---10-10-9-7-|    
G|---0-0---0-0---0-0---0-0---0---0----0-0----0-0----0-----------|    
D|--------------------------------------------------------------|    

[Pre-Chorus]
D|--------------------------------------------------------------------|
A|--------------------------------------------------------------------|
F|-------------------------------------8---10-----8-----10-----8---10-|
C|-3----5----7----9--10--3----5----7-7---7----7-7---7-7----7-7---7----|
G|-3----5----7----9--10--3----5---------------------------------------|
D|-1----3----5----7--8---1----3---------------------------------------|

D|------------------------------------------------------| 
A|------------------------------------------------------| 
F|------5--4-0-------5--4-0-----------------------------| 
C|-3--3---------5--5---------7--------------9--9-10--10-| 
G|-3--3---------5--5---------7--7-7-7-7-7-7-9--9-10--10-| 
D|-1--1---------3--3---------5--5-5-5-5-5-5-7--7-8---8--|

D|-----------------------------------------------------------| 
A|-----------------------------------------------------------| 
F|------5--4-0-------5--4-0----------------------------------| 
C|-3--3---------5--5---------7------7-------10--10-10--10-10-| 
G|-3--3---------5--5---------7--7-7-7-7-7-7-10--10-10--10-10-| 
D|-1--1---------3--3---------5--5-5-5-5-5-5-8---8--8---8--8--|
                            
[Chorus]
D|--------------------------------------------------------------------------------|
A|--------------------------------------------------------------------------------|
F|------------------------------------------------9---9-9-9-9-9-9-9-9-9-9-9-9-9-9-|
C|-3--3-3--3-3--3-3-3--3--5--5-5-5--5-5--5-5-5-5--x---x-x-x-x-x-x-x-x-x-x-x-x-x-x-|
G|-3--3-3--3-3--3-3-3--3--5--5-5-5--5-5--5-5-5-5--7---7-7-7-7-7-7-7-7-7-7-7-7-7-7-|
D|-1--1-1--1-1--1-1-1--1--3--3-3-3--3-3--3-3-3-3----------------------------------|

D|-------------------------------------------------------------------------------------|
A|-------------------------------------------------------------------------------------|
F|-7-7-7-7-7-7-7-7-7/9-9-9-9-9-9-9-9---------------------------------------------------|
C|-x-x-x-x-x-x-x-x-x/x-x-x-x-x-x-x-x--3--3-3-3--3-3--3-3-3-3-3--5--5-5-5--5--5-5-5-5-5-|
G|-5-5-5-5-5-5-5-5-5/7-7-7-7-7-7-7-7--3--3-3-3--3-3--3-3-3-3-3--5--5-5-5--5--5-5-5-5-5-|
D|------------------------------------1--1-1-1--1-1--1-1-1-1-1--3--3-3-3--3--3-3-3-3-3-|

[Verse]
D|-----------------------------------------------------------------------------|
A|-----------------------------------------------------------------------------|
F|-9------9------9------9------9----9----10-----10-----10-----10-----10---9----|
C|-10-----10-----10-----10-----10---10---10-----10-----10-----10-----10---10---|
G|----0-0----0-0----0-0----0-0----0----0----0-0----0-0----0-0----0-0----0----0-|
D|-----------------------------------------------------------------------------|

D|--------------------------------------------------------------|    
A|--------------------------------------------------------------|    
F|-7-----7-----7-----7-----5---7---9------9------9----10-9--7-5-|   x2
C|-9-----9-----9-----9-----7---9---10-----10-----10---10-10-9-7-|    
G|---0-0---0-0---0-0---0-0---0---0----0-0----0-0----0-----------|    
D|--------------------------------------------------------------|    

[Pre-Chorus]
D|--------------------------------------------------------------------|
A|--------------------------------------------------------------------|
F|-------------------------------------8---10-----8-----10-----8---10-|
C|-3----5----7----9--10--3----5----7-7---7----7-7---7-7----7-7---7----|
G|-3----5----7----9--10--3----5---------------------------------------|
D|-1----3----5----7--8---1----3---------------------------------------|

D|------------------------------------------------------| 
A|------------------------------------------------------| 
F|------5--4-0-------5--4-0-----------------------------| 
C|-3--3---------5--5---------7--------------9--9-10--10-| 
G|-3--3---------5--5---------7--7-7-7-7-7-7-9--9-10--10-| 
D|-1--1---------3--3---------5--5-5-5-5-5-5-7--7-8---8--|

D|-----------------------------------------------------------| 
A|-----------------------------------------------------------| 
F|------5--4-0-------5--4-0----------------------------------| 
C|-3--3---------5--5---------7------7-------10--10-10--10-10-| 
G|-3--3---------5--5---------7--7-7-7-7-7-7-10--10-10--10-10-| 
D|-1--1---------3--3---------5--5-5-5-5-5-5-8---8--8---8--8--|
                            
[Chorus]
D|--------------------------------------------------------------------------------|
A|--------------------------------------------------------------------------------|
F|------------------------------------------------9---9-9-9-9-9-9-9-9-9-9-9-9-9-9-|
C|-3--3-3--3-3--3-3-3--3--5--5-5-5--5-5--5-5-5-5--x---x-x-x-x-x-x-x-x-x-x-x-x-x-x-|
G|-3--3-3--3-3--3-3-3--3--5--5-5-5--5-5--5-5-5-5--7---7-7-7-7-7-7-7-7-7-7-7-7-7-7-|
D|-1--1-1--1-1--1-1-1--1--3--3-3-3--3-3--3-3-3-3----------------------------------|

D|-------------------------------------------------------------------------------------|
A|-------------------------------------------------------------------------------------|
F|-7-7-7-7-7-7-7-7-7/9-9-9-9-9-9-9-9---------------------------------------------------|
C|-x-x-x-x-x-x-x-x-x/x-x-x-x-x-x-x-x--3--3-3-3--3-3--3-3-3-3-3--5--5-5-5--5--5-5-5-5-5-|
G|-5-5-5-5-5-5-5-5-5/7-7-7-7-7-7-7-7--3--3-3-3--3-3--3-3-3-3-3--5--5-5-5--5--5-5-5-5-5-|
D|------------------------------------1--1-1-1--1-1--1-1-1-1-1--3--3-3-3--3--3-3-3-3-3-|

[Bridge]
D|-----------------------------------------------------------------|
A|-----------------------------------------------------------------|
F|-----------------------------------------------------------------|
C|-10-10-10-10-10-10-10-10-10-10-10-10-10-10-10-10-9-9-9-9-9-9-9-9-|
G|-0--0--0--0--0--0--0--0--0--0--0--0--0--0--0--0--0-0-0-0-0-0-0-0-|
D|-----------------------------------------------------------------|

D|-----------------------------------------------------------------|
A|-----------------------------------------------------------------|
F|-----------------------------------------------------------------|
C|-----------------------------------------------------------------|
G|-10-10-10-10-10-10-10-10-9-9-9-9-9-9-9-9-10-10-10-10-10-10-10-10-|
D|-0--0--0--0--0--0--0--0--8-8-8-8-8-8-8-8-8--8--8--8--8--8--8--8--|

D|-------------------------------------------------|
A|-------------------------------------------------|
F|-------------------------------------------------|
C|-------------------------------------------------| 
G|-9--9--9--9--9--9--9--9--10-10-10-10-10-10-10-10-|
D|-10-10-10-10-10-10-10-10-10-10-10-10-10-10-10-10-|

D|---------------------------------------------------------|
A|---------------------------------------------------------|
F|---------------------------------------------------------|
C|-9-9-9-9-9-9-9-9-10-10-10-10-10-10-10-10-9-9-9-9-9-9-9-9-|
G|-0-0-0-0-0-0-0-0-0--0--0--0--0--0--0--0--0-0-0-0-0-0-0-0-|
D|---------------------------------------------------------|

D|-----------------------------------------------------------------|
A|-----------------------------------------------------------------|
F|-----------------------------------------------------------------|
C|-----------------------------------------------------------------|
G|-10-10-10-10-10-10-10-10-9-9-9-9-9-9-9-9-10-10-10-10-10-10-10-10-|
D|-0--0--0--0--0--0--0--0--8-8-8-8-8-8-8-8-8--8--8--8--8--8--8--8--|

D|-------------------------------------------------|
A|-------------------------------------------------|
F|-------------------------------------------------| 
C|-9--9--9--9--9--9--9--9--10-10-10-10-10-10-10-10-| x2
G|-10-10-10-10-10-10-10-10-10-10-10-10-10-10-10-10-|
D|-------------------------------------------------|

D|---------------------------------------------------------|
A|---------------------------------------------------------|
F|---------------------------------------------------------|
C|-9-9-9-9-9-9-9-9-10-10-10-10-10-10-10-10-9-9-9-9-9-9-9-9-|
G|-0-0-0-0-0-0-0-0-0--0--0--0--0--0--0--0--0-0-0-0-0-0-0-0-|
D|---------------------------------------------------------|

D|---------------------------------------------------------|
A|---------------------------------pause-until-------------|
F|------------------------------------solo-----------------|
C|-10-10-10-10-10-10-10-10---------------------------------|
G|-0--0--0--0--0--0--0--0----------------------------------|
D|---------------------------------------------------------|

[Solo]
D|--------------------------------------|
A|--------------------------------------|
F|--------------------9------10---------|
C|-12b(14)-10~---9h10---9h10----9h10-7~-|
G|--------------------------------------|
D|--------------------------------------|

D|------------------------------------------------------------|
A|------------------------------------------------------------|
F|----------------------------------17-14----14---------------|
C|-7-10-7-10-7-10-12-10-12-14-12-14-------17----17-14-17b(19)-|
G|------------------------------------------------------------|
D|------------------------------------------------------------|

D|------------------------------------------------------------------|
A|------------------------------------------------------------------|
F|-16b(17)r16-14-------------16b(17)r16-14---------16b(17)r16-14----|
C|---------------17-17b(19)~---------------17-15*~---------------17-|
G|------------------------------------------------------------------|
D|------------------------------------------------------------------|

D|-12----------------12----------------15-12----------12-15-12----------|
A|----13----------13----13----------13-------13----13----------13----13-|
F|-------14----14----------14----14-------------14----------------14----|
C|----------14----------------14----------------------------------------|
G|----------------------------------------------------------------------|
D|----------------------------------------------------------------------|

D|-19-15----------15-19-15----------19b(20)r19-17----17~-|
A|-------17----17----------17----17---------------20-----|
F|----------16----------------16-------------------------|
C|-------------------------------------------------------|
G|-------------------------------------------------------|
D|-------------------------------------------------------|

[Pre-Chorus]
D|---------------------------------------|
A|---------------------------------------|
F|---------------------------------------|
C|-3------5------7------7b(8)-7-8b(10)~--|
G|-3------5------7-----------------------|
D|-1------3------5-----------------------|

[Chorus]
(variation)
D|--------------------------------------------------------------------------------|
A|--------------------------------------------------------------------------------|
F|------------------------------------------------9---9-9-9-9-9-9-9-9-9-9-9-9-9-9-|
C|-3--3-3--3-3--3-3-3--3--5--5-5-5--5-5--5-5-5-5--x---x-x-x-x-x-x-x-x-x-x-x-x-x-x-|
G|-3--3-3--3-3--3-3-3--3--5--5-5-5--5-5--5-5-5-5--7---7-7-7-7-7-7-7-7-7-7-7-7-7-7-|
D|-1--1-1--1-1--1-1-1--1--3--3-3-3--3-3--3-3-3-3----------------------------------|

D|-----------------------------------|
A|-----------------------------------|
F|-7-7-7-7-7-7-7-7-7/9-9-9-9-9-9-9-9-|
C|-x-x-x-x-x-x-x-x-x-x-x-x-x-x-x-x-x-| (play that a few times and     
G|-5-5-5-5-5-5-5-5-5/7-7-7-7-7-7-7-7-|    then slowly fade out)
D|-----------------------------------|


************************************

| x  Dead note
| /  Slide up
| h  Hammer-on
| ~  Vibrato

************************************
Suggest correction
comments
print report bad tab
25 comments total. Showing first comments.
0 reply
slinkar3 10 Aug 19, 2008 03:37 PM

sounds good, and finally someone came out with this tab, i've been waiting for quite some time now. Good job, except i use drop C and make all the changes and shit. good job, thanks a ton my man! BULLET FOR LIFE!

0 reply
Avenger wL 10 Oct 18, 2008 04:25 AM

Good tab, but you'd think someone with the SN "bulletfan" would realize they play in drop C. LoL

+4 reply
Lucifer1805 51 Oct 19, 2008 09:15 AM

Good tab, but you'd think the guy who commented above me would have realised almost all of scream aim fire is in Whole step down
not much drop c apart from,hearts burst into fire and waking the demon. correct me if i'm wrong :)
anyway 5 stars from me man

guest
You may want to rate the tab now too:
select rating
Wanna post a correction for this tab? Suggest correction