Oops, an error
Loading. Please wait.
We have an official Dignity tab made by UG professional guitarists. Check out the tab »
×
55,671 views 12 this week
17 commentsread comments
1 2 3 4 5
x 17
add to favorites
×
Save as Personal and add changes to this tab that will be seen only by you. Learn more ›
×
You can save this tab as Personal to edit and correct it or add notes. All changes will be seen only by you. Learn more »
launch autoscroll
font size
0
reset
how to read this tab
guitar tuner
edit
Autoscroll
slow
fast
+/-
esc
set tempo
stop
Good song and an awesome solo :)
RATE AND COMMENT!!!!!!!!!

Bullet for My Valentine - Dignity

 [Intro]
 Guitar 1: (0:00)
D|-----------------------------------------------------------|
A|-----------------------------------------------------------|
F|-----5-----7---5---4-----4h5p4-2-----5-----7----4-5----4-5-|
C|---------------------------------------------3~-----5~-----|
G|-0-0---0-0---0---0---0-0---------0-0---0-0-----------------|
C|-----------------------------------------------------------|
  . .   . .   .   .   . .         . .   . .
  
 (0:05)
D|-----------------------------------------------------------|
A|-----------------------------------------------------------|
F|-----5-----7---5---4-----4h5p4-2-----5-----7----4-5----4-5-|
C|---------------------------------------------3~-----5~-----|
G|-0-0---0-0---0---0---0-0---------0-0---0-0-----------------|
C|-----------------------------------------------------------|
  . .   . .   .   .   . .         . .   . .

 (0:10)
D|-----------------------------------------------------------|
A|-----------------------------------------------------------|
F|-----5-----7---5---4-----4h5p4-2-----5-----7----4-5----4-5-|
C|---------------------------------------------3~-----5~-----|
G|-0-0---0-0---0---0---0-0---------0-0---0-0-----------------|
C|-----------------------------------------------------------|
  . .   . .   .   .   . .         . .   . .

 (0:15)
D|-----------------------------------------------------------|
A|-----------------------------------------------------------|
F|-----5-----7---5---4-----4h5p4-2-----5-----7----4-5----4-5-|
C|---------------------------------------------3~-----5~-----|
G|-0-0---0-0---0---0---0-0---------0-0---0-0-----------------|
C|-----------------------------------------------------------|
  . .   . .   .   .   . .         . .   . .

 Guitar 2: (0:00)
D|-------------------------------------------------------------|
A|-------------------------------------------------------------|
F|-----9-----10---9---7-----7h9p7-5-----9-----10----7-9----7-9-|
C|-----------------------------------------------7~-----9~-----|
G|-0-0---0-0----0---0---0-0---------0-0---0-0------------------|
C|-------------------------------------------------------------|
  . .   . .    .   .   . .         . .   . .

 (0:05)
D|-------------------------------------------------------------|
A|-------------------------------------------------------------|
F|-----9-----10---9---7-----7h9p7-5-----9-----10----7-9----7-9-|
C|-----------------------------------------------7~-----9~-----|
G|-0-0---0-0----0---0---0-0---------0-0---0-0------------------|
C|-------------------------------------------------------------|
  . .   . .    .   .   . .         . .   . .

 (0:10)
D|-------------------------------------------------------------|
A|-------------------------------------------------------------|
F|-----9-----10---9---7-----7h9p7-5-----9-----10----7-9----7-9-|
C|-----------------------------------------------7~-----9~-----|
G|-0-0---0-0----0---0---0-0---------0-0---0-0------------------|
C|-------------------------------------------------------------|
  . .   . .    .   .   . .         . .   . .

 (0:15)
D|-------------------------------------------------------------|
A|-------------------------------------------------------------|
F|-----9-----10---9---7-----7h9p7-5-----9-----10----7-9----7-9-|
C|-----------------------------------------------7~-----9~-----|
G|-0-0---0-0----0---0---0-0---------0-0---0-0------------------|
C|-------------------------------------------------------------|
  . .   . .    .   .   . .         . .   . .

 [VERSE 1] Part 1
 Guitar 1: (0:20)
 "This society just won't let us be..."
D|-----------------------------------------------------------------|
A|-----------------------------------------------------------------|
F|-----------------------------------------------------------------|
C|-2-2-2-2-2-2-2-2-2-2-2-2-2-2-2-2-2-2-2-2-2-2-2-2-2-2-2-2-2-2-2-2-|
G|-0-0-0-0-0-0-0-0-0-0-0-0-0-0-0-0-0-0-0-0-0-0-0-0-0-0-0-0-0-0-0-0-|
C|-----------------------------------------------------------------|
  . . . . . . . . . . . . . . . . . . . . . . . . . . . . . . . .

 (0:25)
 "Please don't be ashamed, we are not to blame, the..."
D|-----------------------------------------------------------------|
A|-----------------------------------------------------------------|
F|-----------------------------------------------------------------|
C|-----------------------------------------------------------------|
G|-3-3-3-3-3-3-3-3-3-3-3-3-3-3-3-3/5-5-5-5-5-5-5-5\2-2-2-2-2-2-2-2-|
C|-3-3-3-3-3-3-3-3-3-3-3-3-3-3-3-3/5-5-5-5-5-5-5-5\2-2-2-2-2-2-2-2-|
  . . . . . . . . . . . . . . . . . . . . . . . . . . . . . . . .

 (0:31)
 "future's ours to take, we will make mistakes..."
D|-----------------------------------------------------------------|
A|-----------------------------------------------------------------|
F|-----------------------------------------------------------------|
C|-2-2-2-2-2-2-2-2-2-2-2-2-2-2-2-2-2-2-2-2-2-2-2-2-2-2-2-2-2-2-2-2-|
G|-0-0-0-0-0-0-0-0-0-0-0-0-0-0-0-0-0-0-0-0-0-0-0-0-0-0-0-0-0-0-0-0-|
C|-----------------------------------------------------------------|
  . . . . . . . . . . . . . . . . . . . . . . . . . . . . . . . .

 (0:36)
 "scream this loud and proud, 'WE WILL NOT BACK DOWN!'..."
D|-----------------------------------------------------------------|
A|-----------------------------------------------------------------|
F|-----------------------------------------------------------------|
C|-----------------------------------------------------------------|
G|-3-3-3-3-3-3-3-3-3-3-3-3-3-3-3-3-5-5-5-5-5-5-5-5-2-2-2-2-2-2-2-2-|
C|-3-3-3-3-3-3-3-3-3-3-3-3-3-3-3-3-5-5-5-5-5-5-5-5-2-2-2-2-2-2-2-2-|
  . . . . . . . . . . . . . . . .

 Guitar 2: (0:20)
D|-----------------------------------------------------------------|
A|-----------------------------------------------------------------|
F|-----------------------------------------------------------------|
C|-----------------------------------------------------------------|
G|-----------------------------------------------------------------|
C|-----------------------------------------------------------------|

 (0:25)
D|-----------------------------------------------------------------|
A|-----------------------------------------------------------------|
F|-----------------------------------------------------------------|
C|-----------------------------------------------------------------|
G|-----------------------------------------------------------------|
C|-----------------------------------------------------------------|

 (0:31)
D|-----------------------------------------------------------------|
A|-----------------------------------------------------------------|
F|-5-5-5-5-5-5-5-5-5-5-5-5-5-5-5-5-5-5-5-5-5-5-5-5-5-5-5-5-5-5-5-5-|
C|-7-7-7-7-7-7-7-7-7-7-7-7-7-7-7-7-7-7-7-7-7-7-7-7-7-7-7-7-7-7-7-7-|
G|-----------------------------------------------------------------|
C|-----------------------------------------------------------------|
  . . . . . . . . . . . . . . . . . . . . . . . . . . . . . . . .

 (0:36)
D|-------------------------------------------------------------------------|
A|-------------------------------------------------------------------------|
F|-------------------------------------------------------------------------|
C|-7-7-7-7-7-7-7-7-7-7-7-7-7-7-7-7--9--9--9--9--9--9--9--9-7-7-7-7-7-7-7-7-|
G|-9-9-9-9-9-9-9-9-9-9-9-9-9-9-9-9-10-10-10-10-10-10-10-10-9-9-9-9-9-9-9-9-|
C|-------------------------------------------------------------------------|
  . . . . . . . . . . . . . . . .

 [VERSE 2] Part 2
 Both guitars: (0:41)
 "So let's go and relieve the pressure, and a kick can only make it better..."
D|-----------------------------------------------------------|
A|-----------------------------------------------------------|
F|-----2-------2-------2-7--5~-------2-------2-------2-4--5~-|
C|-2-2-2-2-2-2-2-2-2-2-2-7--5~---2-2-2-2-2-2-2-2-2-2-2-4--5~-|
G|-0-0-0-0-0-0-0-0-0-0-0-5--3~---0-0-0-0-0-0-0-0-0-0-0-2--3~-|
C|-----------------------------------------------------------|
  . .   . . .   . . .           . .   . . .   . . .

 (0:46)
 "We can't, we won't surrender, we can't, we won't surrender..."
D|-----------------------------------------------------|
A|------6--5--6--5--6-5--------------------------------|
F|------5--5--5--5--5-5--5----------------10--10--5--5-|
C|-3~---3--3--3--3--3-3--3---5~--------5---x---x--x--x-|
G|-3~---3--3--3--3--3-3--3---5~--5-5-5-5---8---8--8--8-|
C|-3~---3--3--3--3--3-3--3---5~--5-5-5-5---------------|
                                . . .

 (0:51)
 "We're not scared 'cause our life in danger, we add the heat will only make it stronger..."
D|-----------------------------------------------------------|
A|-----------------------------------------------------------|
F|-----2-------2-------2-7--5~-------2-------2-------2-4--5~-|
C|-2-2-2-2-2-2-2-2-2-2-2-7--5~---2-2-2-2-2-2-2-2-2-2-2-4--5~-|
G|-0-0-0-0-0-0-0-0-0-0-0-5--3~---0-0-0-0-0-0-0-0-0-0-0-2--3~-|
C|-----------------------------------------------------------|
  . .   . . .   . . .           . .   . . .   . . .

 (0:56)
 "We can't, we won't surrender, we can't, we won't surrender..."
D|-----------------------------------------------------|
A|------6--5--6--5--6-5--------------------------------|
F|------5--5--5--5--5-5--5----------------10--10--5--5-|
C|-3~---3--3--3--3--3-3--3---5~--------5---x---x--x--x-|
G|-3~---3--3--3--3--3-3--3---5~--5-5-5-5---8---8--8--8-|
C|-3~---3--3--3--3--3-3--3---5~--5-5-5-5---------------|
                                . . .

 [Chorus]
 Guitar 1: (1:01)
 "Don't tell me where are we laying your..."
D|---------------------------------------------------------------------------------|
A|---------------------------------------------------------------------------------|
F|-10-10--10-10-10--10-10-10--10-10-10--10-10-10--10-10-10--10-10-10--10-10-10--10-|
C|--x--x---x--x--x---x--x--x---x--x--x---x--x--x---x--x--x---x--x--x---x--x--x---x-|
G|--8--8---8--8--8---8--8--8---8--8--8---8--8--8---8--8--8---8--8--8---8--8--8---8-|
C|---------------------------------------------------------------------------------|

 (1:06)
 "cemetery, don't try to silence and..."
D|---------------------------------------------------------------|
A|---------------------------------------------------------------|
F|-9-9--9-9-9--9-9-9--9-9-9--9-10-10--10-10-10--10---------------|
C|-x-x--x-x-x--x-x-x--x-x-x--x--x--x---x--x--x---x---------------|
G|-7-7--7-7-7--7-7-7--7-7-7--7--8--8---8--8--8---8-5-5--5-5-5--5-|
C|-------------------------------------------------5-5--5-5-5--5-|
                                                  . .  . . .  .

 (1:11)
 "bury me, don't push me 'cause I won't go..."
D|---------------------------------------------------------------------------------|
A|---------------------------------------------------------------------------------|
F|-10-10--10-10-10--10-10-10--10-10-10--10-10-10--10-10-10--10-10-10--10-10-10--10-|
C|--x--x---x--x--x---x--x--x---x--x--x---x--x--x---x--x--x---x--x--x---x--x--x---x-|
G|--8--8---8--8--8---8--8--8---8--8--8---8--8--8---8--8--8---8--8--8---8--8--8---8-|
C|---------------------------------------------------------------------------------|

 (1:16)
 "quietly, I'd rather die with dignity..."
D|------------------------------------------------------------------------------|
A|------------------------------------------------------------------------------|
F|-12-12--12-12-12--12-12-12--12-12-12--12-12--------10--------10-9-9-9-9-9-9-9-|
C|--x--x---x--x--x---x--x--x---x--x--x---x--x---------x---------x-x-x-x-x-x-x-x-|
G|-10-10--10-10-10--10-10-10--10-10-10--10--10-8---8--8--8---8--8-7-7-7-7-7-7-7-|
C|------------------------------------------------------------------------------|
                                              .   .  .  .   .  . . . . . . . .
                                           
 Guitar 2:
 (1:01)
D|---------------------------------------------------------|
A|---------------------------------------------------------|
F|---------------------------------------------------------|
C|-3-3--3-3-3--3-3-3--3-3-3--3-3-3--3-3-3--3-3-3--3-3-3--3-|
G|-3-3--3-3-3--3-3-3--3-3-3--3-3-3--3-3-3--3-3-3--3-3-3--3-|
C|-3-3--3-3-3--3-3-3--3-3-3--3-3-3--3-3-3--3-3-3--3-3-3--3-|

 (1:06)
D|---------------------------------------------------------|
A|---------------------------------------------------------|
F|---------------------------------------------------------|
C|-7-7--7-7-7--7-7-7--7-7-7--7-5-5--5-5-5--5---------------|
G|-7-7--7-7-7--7-7-7--7-7-7--7-5-5--5-5-5--5-5-5--5-5-5--5-|
C|-7-7--7-7-7--7-7-7--7-7-7--7-5-5--5-5-5--5-5-5--5-5-5--5-|
                                            . .  . . .  .

 (1:11)
D|---------------------------------------------------------|
A|---------------------------------------------------------|
F|---------------------------------------------------------|
C|-3-3--3-3-3--3-3-3--3-3-3--3-3-3--3-3-3--3-3-3--3-3-3--3-|
G|-3-3--3-3-3--3-3-3--3-3-3--3-3-3--3-3-3--3-3-3--3-3-3--3-|
C|-3-3--3-3-3--3-3-3--3-3-3--3-3-3--3-3-3--3-3-3--3-3-3--3-|

 (1:16)
D|---------------------------------------------------------|
A|---------------------------------------------------------|
F|---------------------------------------------------------|
C|-5-5--5-5-5--5-5-5--5-5-5--5---------------5-5-5-5-5-5-5-|
G|-5-5--5-5-5--5-5-5--5-5-5--5-5-5--5-5-5--5-5-5-5-5-5-5-5-|
C|-5-5--5-5-5--5-5-5--5-5-5--5-5-5--5-5-5--5-5-5-5-5-5-5-5-|

 [Post-Chorus] (1:21-1:32)
D|-----------------------------------------------------------|
A|-----------------------------------------------------------|
F|-----5-----7---5---4-----4h5p4-2-----5-----7----4-5----4-5-|
C|---------------------------------------------3~-----5~-----|
G|-0-0---0-0---0---0---0-0---------0-0---0-0-----------------|
C|-----------------------------------------------------------|
  . .   . .   .   .   . .         . .   . .
  
D|-----------------------------------------------------------|
A|-----------------------------------------------------------|
F|-----5-----7---5---4-----4h5p4-2-----5-----7----4-5----4-5-|
C|---------------------------------------------3~-----5~-----|
G|-0-0---0-0---0---0---0-0---------0-0---0-0-----------------|
C|-----------------------------------------------------------|
  . .   . .   .   .   . .         . .   . .

D|-----------------------------------------------------------|
A|-----------------------------------------------------------|
F|-----5-----7---5---4-----4h5p4-2-----5-----7----4-5----4-5-|
C|---------------------------------------------3~-----5~-----|
G|-0-0---0-0---0---0---0-0---------0-0---0-0-----------------|
C|-----------------------------------------------------------|
  . .   . .   .   .   . .         . .   . .

D|-----------------------------------------------------------|
A|-----------------------------------------------------------|
F|-----5-----7---5---4-----4h5p4-2-----5-----7----4-5----4-5-|
C|---------------------------------------------3~-----5~-----|
G|-0-0---0-0---0---0---0-0---------0-0---0-0-----------------|
C|-----------------------------------------------------------|
  . .   . .   .   .   . .         . .   . .


[VERSE 2] Part 1 [except both guitars play the harmony]
[repeat VERSE 1 Part 1] (1:32-1:52)
"Women put us down, hope we're not around...
They pray we go away, but we're here to stay...
Time is on our side, our two worlds collide...
These four words might help, just go fuck yourself!..."

[VERSE 2] Part 2 [repeat VERSE 1 Part 2] (1:53-2:13)
"So let's go we'll release the pressure...
And a kick can only make it better...
We can't we won't surrender...
We can't we won't surrender!...
We're not scared 'cause our life in danger...
We add the heat will only make it stronger...
We can't we won't surrender...
We can't we won't surrender!..."

[Chorus][repeat CHORUS] (2:13-2:33)
"Don't tell me where are we laying your cemetery...
Don't try to silence and bury me...
Don't push me 'cause I won't go quietly...
I'd rather die with dignity..."

 [PRESOLO]
 Guitar 1:(2:33)
D|-----------------------------------------------------------|
A|-----------------------------------------------------------|
F|---9p5---7p4------------------------9p5---7p4-----5--9--7~-|
C|-----------------------------------------------------------|
G|-0-----0-----0-0-00-0-0-0-0-0-0-0-0-----0-----0-0----------|
C|-----------------------------------------------------------|
  .     .     . . .. . . . . . . . .     .     . .

 (2:38)
                 "DIGNITY!!!!!!!!"
D|-----------------------------------------------------------|
A|-----------------------------------------------------------|
F|---9p5---7p4------------------------9p5---7p4-----5--9--7~-|
C|-----------------------------------------------------------|
G|-0-----0-----0-0-00-0-0-0-0-0-0-0-0-----0-----0-0----------|
C|-----------------------------------------------------------|
  .     .     . . .. . . . . . . . .     .     . .

 (2:43)
D|-----------------------------------------------------------|
A|-----------------------------------------------------------|
F|---9p5---7p4------------------------9p5---7p4-----5--9--7~-|
C|-----------------------------------------------------------|
G|-0-----0-----0-0-00-0-0-0-0-0-0-0-0-----0-----0-0----------|
C|-----------------------------------------------------------|
  .     .     . . .. . . . . . . . .     .     . .

 (2:48)
D|-----------------------------------------------------------|
A|-----------------------------------------------------------|
F|---9p5---7p4------------------------9p5---7p4-----5--9--7~-|
C|-----------------------------------------------------------|
G|-0-----0-----0-0-00-0-0-0-0-0-0-0-0-----0-----0-0----------|
C|-----------------------------------------------------------|
  .     .     . . .. . . . . . . . .     .     . .

 Guitar 2: (2:33)
D|-----------------------------------------------------------|
A|-----------------------------------------------------------|
F|---2-----2--------------------------2-----2----------------|
C|---2-----2--------------------------2-----2------7--10--9~-|
G|---0-----0--------------------------0-----0----------------|
C|-----------------------------------------------------------|

 (2:38)
D|-----------------------------------------------------------|
A|-----------------------------------------------------------|
F|---2-----2--------------------------2-----2----------------|
C|---2-----2--------------------------2-----2------7--10--9~-|
G|---0-----0--------------------------0-----0----------------|
C|-----------------------------------------------------------|

 (2:43)
D|--------------------------------------------------------------|
A|--------------------------------------------------------------|
F|--------------------------------------------------------------|
C|---10p7---9p5------------------------10p7---9p5-----7--10--9~-|
G|-0------0-----0-0-00-0-0-0-0-0-0-0-0------0-----0-0-----------|
C|--------------------------------------------------------------|
  .      .     . . .. . . . . . . . .      .     . .

 (2:48)
D|--------------------------------------------------------------|
A|--------------------------------------------------------------|
F|--------------------------------------------------------------|
C|---10p7---9p5------------------------10p7---9p5-----7--10--9~-|
G|-0------0-----0-0-00-0-0-0-0-0-0-0-0------0-----0-0-----------|
C|--------------------------------------------------------------|
  .      .     . . .. . . . . . . . .      .     . .

 [SOLO] [for Guitar 2, I'm just doing the harmonies. The rhythm is very easy to figure out]
 Guitar 1:(2:53)
D|-12p8---------8h12p8---------8h13p8---------8h13p8---------8-|
A|------10---10--------10---10--------10---10--------10---10---|
F|---------9--------------9--------------9--------------9------|
C|-------------------------------------------------------------|
G|-------------------------------------------------------------|
C|-------------------------------------------------------------|

 (2:56) [hammer on and pull off as you please]------------->
D|-/12-10----10--------------------------------------------------|
A|--------13----13-10-13-10----10--------------------------------|
F|--------------------------12----12-9-12-9----9-----------------|
C|------------------------------------------12---12-10-12-10-7-9-|
G|---------------------------------------------------------------|
C|---------------------------------------------------------------|

 (2:59)
D|-------------------------------------------|
A|-------------------------------------------|
F|-------------------------------------------|
C|-10v~--12v~--9v~--10v~--7v~--5v~--2v~--5v~-|
G|-------------------------------------------|
C|-------------------------------------------|

 (3:04)
D|----------------------------------------------------------------|
A|---------------------------------12b13-----------13b15----------|
F|--------14p12----12b14--14p12-----------14p12----------14p12----|
C|-12b14--------14--------------14--------------14-------------14-|
G|----------------------------------------------------------------|
C|----------------------------------------------------------------|

 (3:06)
D|-------------------------------10v~--12v~--15v~-|
A|-/17v~--15v~--13v~--10-11-13v~------------------|
F|------------------------------------------------|
C|------------------------------------------------|
G|------------------------------------------------|
C|------------------------------------------------|

 (3:11)
D|-12p8---------8h12p8---------8h13p8---------8h13p8---------8-|
A|------10---10--------10---10--------10---10--------10---10---|
F|---------9--------------9--------------9--------------9------|
C|-------------------------------------------------------------|
G|-------------------------------------------------------------|
C|-------------------------------------------------------------|

 (3:14)
D|-/15~~~~~~~-|
A|------------|
F|------------|
C|------------|
G|------------|
C|------------|

 Guitar 2: (2:53)
D|-------------------------------------------------------------|
A|-------------------------------------------------------------|
F|-------------------------------------------------------------|
C|-------------------------------------------------------------|
G|-------------------------------------------------------------|
C|-------------------------------------------------------------|

 (2:56)
D|---------------------------------------------------------------|
A|---------------------------------------------------------------|
F|-----------------------------------------------------------5-7-|
C|---------------------------------------------------------------|
G|---------------------------------------------------------------|
C|---------------------------------------------------------------|


 (2:59)
D|------------------------------------------|
A|------------------------------------------|
F|-9v~--10v~--7v~--9v~----------------------|
C|----------------------10v~--9v~--5v~--9v~-|
G|------------------------------------------|
C|------------------------------------------|

 (3:04)
D|----------------------------------------------------------------|
A|----------------------------------------------------------------|
F|----------------------------------------------------------------|
C|----------------------------------------------------------------|
G|----------------------------------------------------------------|
C|----------------------------------------------------------------|

 (3:06)
D|--------------------------------------------12v~-|
A|-/13v~--12v~--10v~--------10v~--12v~--13v~-------|
F|--------------------10-12------------------------|
C|-------------------------------------------------|
G|-------------------------------------------------|
C|-------------------------------------------------|

 (3:11)
D|-------------------------------------------------------------|
A|-------------------------------------------------------------|
F|-------------------------------------------------------------|
C|-------------------------------------------------------------|
G|-------------------------------------------------------------|
C|-------------------------------------------------------------|

 (3:14)
D|-/15~~~~~~~-|
A|------------|
F|------------|
C|------------|
G|------------|
C|------------|

 [POST-SOLO]
 Guitar 1: (3:14)
D|---------------------------------------------------|
A|---------------------------------------------------|
F|-/5-5-5-5-5-7--9--9v~--5-5-5-5-5-7--9--9--12-12-12-|
C|---------------------------------------------------|
G|---------------------------------------------------|
C|---------------------------------------------------|

 (3:19)
D|------------------------------------------|
A|------------------------------------------|
F|-12--10-10--9--10v~--9-12~--10-10--9--7v~-|
C|------------------------------------------|
G|------------------------------------------|
C|------------------------------------------|

 (3:24)
D|---------------------------------------------------|
A|---------------------------------------------------|
F|-/5-5-5-5-5-7--9--9v~--5-5-5-5-5-7--9--9--12-12-12-|
C|---------------------------------------------------|
G|---------------------------------------------------|
C|---------------------------------------------------|

 (3:29)
D|------------------------------------------|
A|------------------------------------------|
F|-12--10-10--9--10v~--9-12~--10-10--9--7v~-|
C|------------------------------------------|
G|------------------------------------------|
C|------------------------------------------|

 Guitar 2: (3:14)
D|-------------------------------------------------------|
A|-------------------------------------------------------|
F|-------------------------------------------------------|
C|-/7-7-7-7-7-9--10--10v~--7-7-7-7-7-9--10--10--14-14-14-|
G|-------------------------------------------------------|
C|-------------------------------------------------------|

 (3:19)
D|--------------------------------------------|
A|--------------------------------------------|
F|--------------------------------------------|
C|-14--12-12--10--12v~--10-14~--12-12--10-9v~-|
G|--------------------------------------------|
C|--------------------------------------------|

 (3:24)
D|-------------------------------------------------------|
A|-------------------------------------------------------|
F|-------------------------------------------------------|
C|-/7-7-7-7-7-9--10--10v~--7-7-7-7-7-9--10--10--14-14-14-|
G|-------------------------------------------------------|
C|-------------------------------------------------------|

 (3:29)
D|--------------------------------------------|
A|--------------------------------------------|
F|--------------------------------------------|
C|-14--12-12--10--12v~--10-14~--12-12--10-9v~-|
G|--------------------------------------------|
C|--------------------------------------------|

[Chorus]
[repeat CHORUS 2x] (3:34-4:14)
"Don't tell me where are we laying your cemetery...
Don't try to silence and bury me...
Don't push me 'cause I won't go quietly...
I'd rather die with dignity...
Don't tell me where are we laying your cemetery...
Don't try to silence and bury me...
Don't push me 'cause I won't go quietly...
I'd rather die with dignity..."

 [Outro] (4:15-4:25)
D|-----------------------------------------------------------|
A|-----------------------------------------------------------|
F|-----5-----7---5---4-----4h5p4-2-----5-----7----4-5----4-5-|
C|---------------------------------------------3~-----5~-----|
G|-0-0---0-0---0---0---0-0---------0-0---0-0-----------------|
C|-----------------------------------------------------------|
  . .   . .   .   .   . .         . .   . .
 
D|-----------------------------------------------------------|
A|-----------------------------------------------------------|
F|-----5-----7---5---4-----4h5p4-2-----5-----7----4-5----4-5-|
C|---------------------------------------------3~-----5~-----|
G|-0-0---0-0---0---0---0-0---------0-0---0-0-----------------|
C|-----------------------------------------------------------|
  . .   . .   .   .   . .         . .   . .

D|-----------------------------------------------------------|
A|-----------------------------------------------------------|
F|-----5-----7---5---4-----4h5p4-2-----5-----7----4-5----4-5-|
C|---------------------------------------------3~-----5~-----|
G|-0-0---0-0---0---0---0-0---------0-0---0-0-----------------|
C|-----------------------------------------------------------|
  . .   . .   .   .   . .         . .   . .

D|-----------------------------------------------------------|
A|-----------------------------------------------------------|
F|-----5-----7---5---4-----4h5p4-2-----5-----7----4-5----4-5-|
C|---------------------------------------------3~-----5~-----|
G|-0-0---0-0---0---0---0-0---------0-0---0-0-----------------|
C|-----------------------------------------------------------|
  . .   . .   .   .   . .         . .   . .

 [END WITH]
 (4:25)
D|------|
A|------|
F|-2-2--|
C|-2-2--|
G|-0-0--|
C|------|

************************************

| h  Hammer-on
| p  Pull-off
| ~  Vibrato
| .  Palm Mute
| /  Slide up
| \  Slide down
| x  Dead note
| >  Accented note
| b  Bend

************************************
Suggest correction
Creating personal tab
Creating personal tab
You can edit any tab online and save it as your Personal.

You can edit, replace or remove any tab part or add personal notes – all changes will be seen only by you.

Personal tabs can be accessed anytime from any device, even offline.
Learn more »
comments
print report bad tab
17 comments total. Showing first comments.
0 reply
dyl24 20 May 12, 2010 03:01 PM

Yes, a good tab of dignity, top stuff man.

+5 reply
iamghost 807 May 12, 2010 05:18 PM

Every song on Fever is drop C.

+1 reply
iamghost 807 May 12, 2010 06:29 PM

plus, if this song were in drop D, the sweep picking in the solo would be way too much of a stretch.

guest
You may want to rate the tab now too:
select rating
Wanna post a correction for this tab? Suggest correction