Oops, an error
Loading. Please wait.

Dirty Little Secret bass

version 1
version 1

Whole song

Interactive

952 views 1 this week
no commentswrite comment
1 2 3 4 5
2 more votes to show rating
add to favorites
×
Save as Personal and add changes to this tab that will be seen only by you. Learn more ›
×
You can save this tab as Personal to edit and correct it or add notes. All changes will be seen only by you. Learn more »
launch autoscroll
font size
0
reset
guitar tuner
edit
Autoscroll
slow
fast
+/-
esc
set tempo
stop
Author
Unregistered
-------------------------------------------------------------------------------
                   Dirty Little Secret - Bullet For My Valentine
-------------------------------------------------------------------------------

Tuning: Drop C


Intro
 
F|-------------------------------------------------|
C|-------------------------------------------------|
G|-------------------------------------------------|=================\
C|--0-0-0-0-0-0-0-0--------0-0-0-0-0-0-0-0---------|                  \
                                                                      \
F|-----------------------------------------------------------|          \
C|-----------------------------------------------------------|===========\
G|-----------------------------------------------------------|
C|--3-3-3-3-3-3-3-3--------3-3-3-3-3-3-3-3-3-3-3-3-3-3-3-3-3-|   ========\
                                                                         2 Times
F|-------------------------------------------------|             ========/
C|-------------------------------------------------|          ============/
G|--3-3-3-3-3-3-3-3--------3-3-3-3-3-3-3-3---------|                     /
C|-------------------------------------------------|                    /
                                                                      /
F|-----------------------------------------------------------|========/
C|-----------------------------------------------------------|
G|-----------------------------------------------------------|
C|--0-0-0-0-0-0-0-0--------0-0-0-0-0-0-0-0-0-0-0-0-0-0-0-0-0-|

F|---------------------------------------------------------------|
C|---------------------------------------------------------------|
G|--5-3---------5-3----------------------------5------------5----|========
C|------0-0-0-0-----0-0-0-0-0-0-0-0----0-0-0-0------0-0-0-0------|   =======\
                                                                            2 Times
F|---------------------------------------------------------------|   =======/
C|---------------------------------------------------------------|========
G|--5-3---------5-3--------------------------1--1--1----3--------|
C|------0-0-0-0-----0-0-0-0-0-0-0-0-----3------------------------|


Fill
  
F|---------------------|
C|---------------------|
G|---------------------|
C|--0------0------0----|


Verse

F|----------------------------------------------------------------------|
C|----------------------------------------------------------------------|
G|------------1--3--0-----1---------------------1--3--0-----1-------3---|
C|--0--------------------------------0----------------------------------|

F|----------------------------------------------------------------------|
C|----------------------------------------------------------------------|
G|------------1--3--0-----1---------------------1--3--0-----1-------3---|
C|--0--------------------------------0----------------------------------|


Pre Chorus
 
F|-----------------------------------|----------------------------------|
C|-----------------------------------|----------------------------------|
G|-----------------------------------|----------------------------------|
C|--0-0-0-0-0-0-0-0-0-0-0-0-0-0-0-0--|--0-0-0-0-0-0-0-0-0-0-0-0-0-0-0-0-|
  
F|-----------------------------------|----------------------------------|
C|-----------------------------------|----------------------------------|
G|--1-1-1-1-1-1-1-1-1-1-1-1-1-1-1-1--|--3-3-3-3-3-3-3-3-3-3-3-3-3-3-3-3-|
C|-----------------------------------|----------------------------------|

F|-----------------------------------|----------------------------------|
C|-----------------------------------|----------------------------------|
G|-----------------------------------|----------------------------------|
C|--0-0-0-0-0-0-0-0-0-0-0-0-0-0-0-0--|--0-0-0-0-0-0-0-0-0-0-0-0-0-0-0-0-|
  
F|-----------------------------------|----------------------------------|
C|-----------------------------------|----------------------------------|
G|--1-1-1-1-1-1-1-1-1-1-1-1-1-1-1-1--|--3-3-3-3-3-3-3-3-3-3-3-3-3-3-3-3-|
C|-----------------------------------|----------------------------------|


Chorus

F|---------------------------------------------------------------|
C|---------------------------------------------------------------|
G|--5-3---------5-3----------------------------5------------5----|
C|------0-0-0-0-----0-0-0-0-0-0-0-0----0-0-0-0------0-0-0-0------|

F|---------------------------------------------------------------|
C|---------------------------------------------------------------|
G|--5-3---------5-3--------------------------1--1--1----3--------|
C|------0-0-0-0-----0-0-0-0-0-0-0-0-----3------------------------|

F|---------------------------------------------------------------|
C|---------------------------------------------------------------|
G|--5-3---------5-3----------------------------5------------5----|
C|------0-0-0-0-----0-0-0-0-0-0-0-0----0-0-0-0------0-0-0-0------|

F|---------------------------------------------------------------|
C|---------------------------------------------------------------|
G|--5-3---------5-3--------------------------1--1--1----3--------|
C|------0-0-0-0-----0-0-0-0-0-0-0-0-----3------------------------|



Verse

F|----------------------------------------------------------------------|
C|----------------------------------------------------------------------|
G|------------1--3--0-----1---------------------1--3--0-----1-------3---|
C|--0--------------------------------0----------------------------------|

F|----------------------------------------------------------------------|
C|----------------------------------------------------------------------|
G|------------1--3--0-----1---------------------1--3--0-----1-------3---|
C|--0--------------------------------0----------------------------------|


Pre Chorus
 
F|-----------------------------------|----------------------------------|
C|-----------------------------------|----------------------------------|
G|-----------------------------------|----------------------------------|
C|--0-0-0-0-0-0-0-0-0-0-0-0-0-0-0-0--|--0-0-0-0-0-0-0-0-0-0-0-0-0-0-0-0-|
  
F|-----------------------------------|----------------------------------|
C|-----------------------------------|----------------------------------|
G|--1-1-1-1-1-1-1-1-1-1-1-1-1-1-1-1--|--3-3-3-3-3-3-3-3-3-3-3-3-3-3-3-3-|
C|-----------------------------------|----------------------------------|

F|-----------------------------------|----------------------------------|
C|-----------------------------------|----------------------------------|
G|-----------------------------------|----------------------------------|
C|--0-0-0-0-0-0-0-0-0-0-0-0-0-0-0-0--|--0-0-0-0-0-0-0-0-0-0-0-0-0-0-0-0-|
  
F|-----------------------------------|----------------------------------|
C|-----------------------------------|----------------------------------|
G|--1-1-1-1-1-1-1-1-1-1-1-1-1-1-1-1--|--3-3-3-3-3-3-3-3-3-3-3-3-3-3-3-3-|
C|-----------------------------------|----------------------------------|


Chorus

F|---------------------------------------------------------------|
C|---------------------------------------------------------------|
G|--5-3---------5-3----------------------------5------------5----|
C|------0-0-0-0-----0-0-0-0-0-0-0-0----0-0-0-0------0-0-0-0------|

F|---------------------------------------------------------------|
C|---------------------------------------------------------------|
G|--5-3---------5-3--------------------------1--1--1----3--------|
C|------0-0-0-0-----0-0-0-0-0-0-0-0-----3------------------------|

F|---------------------------------------------------------------|
C|---------------------------------------------------------------|
G|--5-3---------5-3----------------------------5------------5----|
C|------0-0-0-0-----0-0-0-0-0-0-0-0----0-0-0-0------0-0-0-0------|

F|---------------------------------------------------------------|
C|---------------------------------------------------------------|
G|--5-3---------5-3--------------------------1--1--1----3--------|
C|------0-0-0-0-----0-0-0-0-0-0-0-0-----3------------------------|


Fill

F|-------------------------------------------|
C|-------------------------------------------|
G|-------------------------------------------|
C|--0------------0--0--0--0--0--0--0--0------|


Solo

F|----------------------------------------------------------------------|
C|----------------------------------------------------------------------|
G|------------1--3--0-----1---------------------1--3--0-----1-------3---|
C|--0--------------------------------0----------------------------------|

F|----------------------------------------------------------------------|
C|----------------------------------------------------------------------|
G|------------1--3--0-----1---------------------1--3--0-----1-------3---|
C|--0--------------------------------0----------------------------------|

F|-----------------------------------|----------------------------------|
C|-----------------------------------|----------------------------------|
G|-----------------------------------|----------------------------------|
C|--0-0-0-0-0-0-0-0-0-0-0-0-0-0-0-0--|--0-0-0-0-0-0-0-0-0-0-0-0-0-0-0-0-|
  
F|-----------------------------------|----------------------------------|
C|-----------------------------------|----------------------------------|
G|--1-1-1-1-1-1-1-1-1-1-1-1-3-3-3-3--|--1-1-1-1-1-1-1-1-1-1-1-1-3-3-3-3-|
C|-----------------------------------|----------------------------------|

F|-----------------------------------|----------------------------------|
C|-----------------------------------|----------------------------------|
G|-----------------------------------|----------------------------------|
C|--0-0-0-0-0-0-0-0-0-0-0-0-0-0-0-0--|--0-0-0-0-0-0-0-0-0-0-0-0-0-0-0-0-|
  
F|-----------------------------------|----------------------------------|
C|-----------------------------------|----------------------------------|
G|--1-1-1-1-1-1-1-1-1-1-1-1-3-3-3-3--|--1-1-1-1-1-1-1-1-1-1-1-1-3-3-3-3-|
C|-----------------------------------|----------------------------------|

F|-----------------------------------|----------------------------------|
C|-----------------------------------|----------------------------------|
G|-----------------------------------|----------------------------------|
C|--0-0-0-0-0-0-0-0-0-0-0-0-0-0-0-0--|--0-0-0-0-0-0-0-0-0-0-0-0-0-0-0-0-|
  
F|-----------------------------------|----------------------------------|
C|-----------------------------------|----------------------------------|
G|--1-1-1-1-1-1-1-1-1-1-1-1-3-3-3-3--|--1-1-1-1-1-1-1-1-1-1-1-1-3-3-3-3-|
C|-----------------------------------|----------------------------------|

F|-----------------------------------|----------------------------------|
C|-----------------------------------|----------------------------------|
G|-----------------------------------|----------------------------------|
C|--0-0-0-0-0-0-0-0-0-0-0-0-0-0-0-0--|--0-0-0-0-0-0-0-0-0-0-0-0-0-0-0-0-|
  
F|-----------------------------------|----------------------------------|
C|-----------------------------------|----------------------------------|
G|--1-1-1-1-1-1-1-1-1-1-1-1-3-3-3-3--|--1-1-1-1-1-1-1-1-1-1-1-1-3-3-3-3-|
C|-----------------------------------|----------------------------------|


Pre Chorus
 
F|-----------------------------------|----------------------------------|
C|-----------------------------------|----------------------------------|
G|-----------------------------------|----------------------------------|
C|-----------------------------------|----------------------------------|
  
F|-----------------------------------|----------------------------------|
C|-----------------------------------|----------------------------------|
G|-----------------------------------|----------------------------------|
C|-----------------------------------|----------------------------------|

F|-----------------------------------|----------------------------------|
C|-----------------------------------|----------------------------------|
G|-----------------------------------|----------------------------------|
C|-----------------------------------|----------------------------------|

F|-----------------------------------|----------------------------------|
C|-----------------------------------|----------------------------------|
G|-----------------------------------|----------------------------------|
C|-----------------------------------|----------------------------------|


Chorus

F|---------------------------------------------------------------|
C|---------------------------------------------------------------|
G|--5-3---------5-3----------------------------5------------5----|
C|------0-0-0-0-----0-0-0-0-0-0-0-0----0-0-0-0------0-0-0-0------|

F|---------------------------------------------------------------|
C|---------------------------------------------------------------|
G|--5-3---------5-3--------------------------1--1--1----3--------|
C|------0-0-0-0-----0-0-0-0-0-0-0-0-----3------------------------|

F|---------------------------------------------------------------|
C|---------------------------------------------------------------|
G|--5-3---------5-3----------------------------5------------5----|
C|------0-0-0-0-----0-0-0-0-0-0-0-0----0-0-0-0------0-0-0-0------|

F|---------------------------------------------------------------|
C|---------------------------------------------------------------|
G|--5-3---------5-3--------------------------1--1--1----3--------|
C|------0-0-0-0-----0-0-0-0-0-0-0-0-----3------------------------|


***************************************************************************

            
            
Suggest correction
Creating personal tab
Creating personal tab
You can edit any tab online and save it as your Personal.

You can edit, replace or remove any tab part or add personal notes – all changes will be seen only by you.

Personal tabs can be accessed anytime from any device, even offline.
Learn more »
Give kudos to tab author, rate the tab!
1 2 3 4 5
comments
print report bad tab
guest
Wanna post a correction for this tab? Suggest correction