Oops, an error
Loading. Please wait.

End Of Days bass

version 1
version 1

Whole song

Interactive

5,344 views 6 this week
3 commentsread comments
1 2 3 4 5
x 3
add to favorites
×
Save as Personal and add changes to this tab that will be seen only by you. Learn more ›
×
You can save this tab as Personal to edit and correct it or add notes. All changes will be seen only by you. Learn more »
launch autoscroll
font size
0
reset
guitar tuner
backing track
0:00
0:00
edit
Autoscroll
slow
fast
+/-
esc
set tempo
stop
Author
Here's the tab...
It sounds good to me so please rate...

I know the tunning is a little weird because i'm to lazy to tune it in full drop C!

Tip: U can play some 0's also as 12's so it's youre choise!

=Intro=
G---------|
D---------|
A---------|
C-0-0-xxx-|

=Chorus=
G----------------------------| ----------------
D----------------------------|  2x             |
A----------------------------|                 |
C-0--0-10-00-8-00-7-00-3-0-5-|                 |
                                               |---  2x
G-------------------------------------------|  |
D-------------------------------------------|  |
A-------------------------------------------|  |
C-0--0-10-00-8-00-7-00-5-0-7-888888-7777777-|--

=Couplet=
G-------------------------------------------------------|
D-------------------------------------------------------|
A-------------------------------------------------------|
C-12--10-12-0000000-10-8888888-1010101010-141414-151515-|

G-------------------------------------------------------------|
D-------------------------------------------------------------|
A-------------------------------------------------------------|
C-12-000000-10-12-0000000-10-8888888-1010101010-141414-151515-|

G----------------------------------------------------------------------|
D----------------------------------------------------------------------|  2x 
A--------------------------5-6-----------------------------------------|
C-88888888-15h14h12-8888888-8-8-15h14h10--((0-000-10)-000-8-000-7-0)2x-|

last time play only (0-000-10) and then...
G-----|
D-----|
A-----|
C-0-0-|

=Chorus=
G----------------------------| ----------------
D----------------------------|                 |
A----------------------------|                 |
C-0--0-10-00-8-00-7-00-3-0-5-|                 |
                                               |
G--------------------------|                   |
D--------------------------|                   |---  2x
A--------------------------|                   |
C-0--0-10-00-8-00-888--777-|                   |
                                               |
G-------------------------------------------|  |
D-------------------------------------------|  |
A-------------------------------------------|  |
C-0--0-10-00-8-00-7-00-5-0-7-888888-7777777-|--

=Couplet=
G-------------------------------------------------------|
D-------------------------------------------------------|
A-------------------------------------------------------|
C-12--10-12-0000000-10-8888888-1010101010-141414-151515-|

G-------------------------------------------------------------|
D-------------------------------------------------------------|
A-------------------------------------------------------------|
C-12-000000-10-12-0000000-10-8888888-1010101010-141414-151515-|

G----------------------------------------------------------------------|
D----------------------------------------------------------------------|  2x 
A--------------------------5-6-----------------------------------------|
C-88888888-15h14h12-8888888-8-8-15h14h10--((0-000-10)-000-8-000-7-0)2x-|

last time play only (0-000-10) and then...
G-----|
D-----|
A-----|
C-0-0-|

=Chorus=
G----------------------------| ----------------
D----------------------------|                 |
A----------------------------|                 |
C-0--0-10-00-8-00-7-00-3-0-5-|                 |
                                               |
G--------------------------|                   |
D--------------------------|                   |---  2x
A--------------------------|                   |
C-0--0-10-00-8-00-888--777-|                   |
                                               |
G-------------------------------------------|  |
D-------------------------------------------|  |
A-------------------------------------------|  |
C-0--0-10-00-8-00-7-00-5-0-7-888888-7777777-|--

=Bridge=
G-------------------------------------|
D-------------------------------------|
A-------------------------------------|
C-12--8-10-12--12-10-8--8-8-7~--15-10-|

G---------------------------------------------------------------|
D---------------------------------------------------------------|
A---------------------------------------------------------------|
C-12x12x12x12x-12x12x12x12x-x-x-88x88x88x88x88-77x77x77~--15-10-|

G-------------------------------------------------------|
D-------------------------------------------------------|
A-------------------------------------------------------|
C-12-00000-15-12-000000-15-12-00000-888888-777777-15-10-|

G--------------------------------------------|
D--------------------------------------------|
A--------------------------------------------|
C-0000000000000000-888888888-777777777-15-10-|

=Riff=
G------------------------|
D------------------------| for this as exemple u can play the 0 also as 12's
A------------------------|
C-00--00--88--1010-14-15-|

G--------------------------------------|
D--------------------------------------|  2x
A--------------------------------------|
C-00000000-888888-10101010101010-14-15-|

=Outro=
G--------------|
D--------------|
A--------------|
C-0~-0~-8~-10~-|

G--------------------------------------------------------------------|
D--------------------------------------------------------------------|  4x 
A--------------------------5-6---------------------------------------|
C-88888888-15h14h12-8888888-8-8-15h14h10--(0-000-10-000-8-000-7-0)2x-|

G------------------------|
D------------------------|  2x
A------------------------|
C-0-000-10-000-8-000-7-0-|

G--------|
D--------|
A--------|
C-0-0--0-|

Plz rate ^^ hope u like it!

            
            
Suggest correction
Creating personal tab
Creating personal tab
You can edit any tab online and save it as your Personal.

You can edit, replace or remove any tab part or add personal notes – all changes will be seen only by you.

Personal tabs can be accessed anytime from any device, even offline.
Learn more »
Give kudos to tab author, rate the tab!
1 2 3 4 5
comments
print report bad tab
3 comments total.
0 reply
shalevtom02 10 Jun 09, 2008 12:49 PM

id you tuned only the last string so tune the others to play this song or just tune the last one on c?

0 reply
shalevtom02 10 Jun 09, 2008 01:02 PM

*if you

+1 reply
hockeybass34 10 Jun 29, 2011 09:23 AM

im pretty sure its full drop c. (cgcf)

guest
You may want to rate the tab now too:
select rating
Wanna post a correction for this tab? Suggest correction