Oops, an error
Loading. Please wait.
We have an official Eye Of The Storm tab made by UG professional guitarists. Check out the tab »
×
31,706 views 12 this week
6 commentsread comments
1 2 3 4 5
x 11
add to favorites
×
Save as Personal and add changes to this tab that will be seen only by you. Learn more ›
×
You can save this tab as Personal to edit and correct it or add notes. All changes will be seen only by you. Learn more »
launch autoscroll
font size
0
reset
how to read this tab
guitar tuner
edit
Autoscroll
slow
fast
+/-
esc
set tempo
stop
Eye Of The Storm
Bullet For My Valentine
Scream Aim Fire
D Tuning- DGCFAD

-Intro-
Matt
D||-------------------------------------------------------------------||
A||o-----------------------------------------------------------------o||
F||-------------------------------------------------------------------||
C||------2-----0-------------------------2-----0-------------3-3-3-3--||
G||o---------------3---2-----3-2-0-2---------------3---2-----1-1-1-1-o||
D||--0-0---0-0---0---0---0-0---------0-0---0-0---0---0---0-0----------||
     - -   - -   -   -   - -         - -   - -   -   -   - -
Padge
D||-------------------------------------------------------------------||
A||o-----------------------------------------------------------------o||
F||-------------------------------------------------------------------||
C||----------------------------------------------------------3-3-3-3--||
G||o-2-2-----------------------------2-2---------------------1-1-1-1-o||
D||--0-0-----------------------------0-0------------------------------||
     - -                             - -

-Verse-
Matt & Padge
D||-------------------------------------------------------------------||
A||o-----------------------------------------------------------------o||
F||-------------------------------------------------------------------||
C||------2-----0-------------------------2-----0-------------3-3-3-3--||
G||o---------------3---2-----3-2-0-2---------------3---2-----1-1-1-1-o||
D||--0-0---0-0---0---0---0-0---------0-0---0-0---0---0---0-0----------||x4
     - -   - -   -   -   - -         - -   - -   -   -   - -
-"Can you hear the thunder? Can you feel the rain, it pours
...Nail down all your windows, then barricade the doors
...Mother nature's fury, she takes you by the hand
...Showing all but mercy, wreaking death upon the land"

GO!

Matt & Padge
D|----------------------------------------------------------------|
A|----------------------------------------------------------------|
F|----------------------------------------------------------------|
C|------2----2--2-------2----2--2-------2----2--2-------2-------2-|
G|-2222-2----2--2--2222-2----2--2--2222-2----2--2--2222-2--2222-2-|
D|-0000-0----0--0--0000-0----0--0--0000-0----0--0--0000-0--0000-0-|

D|------------------------------------------------|
A|------------------------------------------------|
F|------------------------------------------------|
C|------2----2--2-------2----2--2-------2----2--2-|
G|-2222-2----2--2--2222-2----2--2--2222-2----2--2-|
D|-0000-0----0--0--0000-0----0--0--0000-0----0--0-|

Matt
D|-----------|
A|-----------|
F|-----------|
C|-----------|
G|-5-4-5-7~~-|
D|-----------|
Padge
D|-----------|
A|-----------|
F|-----------|
C|-4-2-4-5~~-|
G|-----------|
D|-----------|


-Chorus-
Matt & Padge
D||-------------------------------|
A||o------------------------------|
R||-------------------------------|
C||--9-9999-9--9999-9-9999-9-9999-|
G||o-7-7777-7--7777-7-7777-7-7777-|
D||--0------0-------0------0------|
       ----    ----   ----   ----
-"Caught in the Eye
-"We are, caught in the Eye

Matt
D|-----------------|
A|-----------------|
F|-----------------|
C|-10-10-10p9-10p9-|
G|-----------------|
D|-----------------|
   -  -  -    -
Padge
D|-----------------|
A|-----------------|
F|-9--9--9p7--9p7--|
C|-----------------|
G|-----------------|
D|-----------------|
   -  -  -    -
...Of The

Matt & Padge
D|--------------------------|
A|--------------------------|
R|--------------------5~~---|
C|-9-9999-9-9999-9-99-5~~-5-|
G|-7-7777-7-7777-7-77-3~~-5-|
D|-0------0------0--------3-|
     ----   ----   --
...Storm

D|-----------------------------|
A|-----------------------------|
F|-----------------------------|
C|-9-9999-9-9999-9-9999-9-9999-|
G|-7-7777-7-7777-7-7777-7-7777-|
D|-0------0------0------0------|
     ----   ----   ----   ----
...Did the heavens just
...All that's left just

Matt
D|-----------------|
A|-----------------|
F|-----------------|
C|-10-10-10p9-10p9-|
G|-----------------|
D|-----------------|
   -  -  -    -
Padge
D|-----------------|
A|-----------------|
F|-9--9--9p7--9p7--|
C|-----------------|
G|-----------------|
D|-----------------|
   -  -  -    -
...Open
...Bodies

Matt & Padge
D|---------------------||Matt----------||
A|---------------------||-------------o||
R|---------------------||--------------||
C|-9-9999-9-9999-9--99-||-7-5-4--------||
G|-7-7777-7-7777-7--77-||-------7-5~~-o||
D|-0------0------0-----||--------------||
     ----   ----    --   Padge
...And fall"           D|--------------||
...To mourn"           A|-------------o||
                       F|-4-2----------||
                       C|-----5-4-2~~--||
                       G|-------------o||
                       D|--------------||


-Verse-
Matt & Padge
D|-----------------------------------------------------------------|
A|-----------------------------------------------------------------|
F|-----------------------------------------------------------------|
C|-----2-----0-------------------------2-----0-------------3-3-3-3-|
G|---------------3---2-----3-2-0-2---------------3---2-----1-1-1-1-|
D|-0-0---0-0---0---0---0-0---------0-0---0-0---0---0---0-0---------|
   - -   - -   -   -   - -         - -   - -   -   -   - -
"Can you see the lightning? Can you feel the wind, it soars...

D|--------------------------------------------------------------------------|
A|--------------------------------------------------------------------------|
F|--------------------------------------------------------------------------|
C|-----2-----0-------------------------2-----0-------------3-3-3-3--3-3-3-3-|
G|---------------3---2-----3-2-0-2---------------3---2-----1-1-1-1--1-1-1-1-|
D|-0-0---0-0---0---0---0-0---------0-0---0-0---0---0---0-0------------------|
   - -   - -   -   -   - -         - -   - -   -   -   - -
...Pack up your belongings, let chaos take control. TAKE CONTROL!!!

Matt
D||------------------------------------------------------------------||
A||o----------------------------------------------------------------o||
F||------------------------------------------------------------------||
C||-----2-----0-------------------------2-----0-------------3-3-3-3--||
G||o--------------3---2-----3-2-0-2---------------3---2-----1-1-1-1-o||
D||-0-0---0-0---0---0---0-0---------0-0---0-0---0---0---0-0----------||
    - -   - -   -   -   - -         - -   - -   -   -   - -
Padge
D||------------------------------------------------------------------||
A||o----------------------------------------------------------------o||
F||------------------------------------------------------------------||
G||-----5-----4---2---0-----2-0---0-----5-----4---2---0-----3-3-3-3--||
C||o----------------------------4---------------------------1-1-1-1-o||
D||-0-0---0-0---0---0---0-0---------0-0---0-0---0---0---0-0----------||
    - -   - -   -   -   - -         - -   -  -  -   -   - -
...Mother nature's FURY!! Takes you by the hand
...Rip this world pieces, bid farewell to all you know"

GO!

Matt & Padge
D|----------------------------------------------------------------|
A|----------------------------------------------------------------|
F|----------------------------------------------------------------|
C|------2----2--2-------2----2--2-------2----2--2-------2-------2-|
G|-2222-2----2--2--2222-2----2--2--2222-2----2--2--2222-2--2222-2-|
D|-0000-0----0--0--0000-0----0--0--0000-0----0--0--0000-0--0000-0-|

D|------------------------------------------------|
A|------------------------------------------------|
F|------------------------------------------------|
C|------2----2--2-------2----2--2-------2----2--2-|
G|-2222-2----2--2--2222-2----2--2--2222-2----2--2-|
D|-0000-0----0--0--0000-0----0--0--0000-0----0--0-|

Matt
D|-----------|
A|-----------|
F|-----------|
C|-----------|
G|-5-4-5-7~~-|
D|-----------|
Padge
D|-----------|
A|-----------|
F|-----------|
C|-4-2-4-5~~-|
G|-----------|
D|-----------|


-Chorus-
Matt & Padge
D||-------------------------------|
A||o------------------------------|
R||-------------------------------|
C||--9-9999-9--9999-9-9999-9-9999-|
G||o-7-7777-7--7777-7-7777-7-7777-|
D||--0------0-------0------0------|
       ----    ----   ----   ----
-"Caught in the Eye
-"We are, caught in the Eye

Matt
D|-----------------|
A|-----------------|
F|-----------------|
C|-10-10-10p9-10p9-|
G|-----------------|
D|-----------------|
   -  -  -    -
Padge
D|-----------------|
A|-----------------|
F|-9--9--9p7--9p7--|
C|-----------------|
G|-----------------|
D|-----------------|
   -  -  -    -
...Of The

Matt & Padge
D|--------------------------|
A|--------------------------|
R|--------------------5~~---|
C|-9-9999-9-9999-9-99-5~~-5-|
G|-7-7777-7-7777-7-77-3~~-5-|
D|-0------0------0--------3-|
     ----   ----   --
...Storm

D|-----------------------------|
A|-----------------------------|
F|-----------------------------|
C|-9-9999-9-9999-9-9999-9-9999-|
G|-7-7777-7-7777-7-7777-7-7777-|
D|-0------0------0------0------|
     ----   ----   ----   ----
...Did the heavens just
...All that's left just

Matt
D|-----------------|
A|-----------------|
F|-----------------|
C|-10-10-10p9-10p9-|
G|-----------------|
D|-----------------|
   -  -  -    -
Padge
D|-----------------|
A|-----------------|
F|-9--9--9p7--9p7--|
C|-----------------|
G|-----------------|
D|-----------------|
   -  -  -    -
...Open
...Bodies

Matt & Padge
D|---------------------||Matt----------||
A|---------------------||-------------o||
R|---------------------||--------------||
C|-9-9999-9-9999-9--99-||-7-5-4--------||
G|-7-7777-7-7777-7--77-||-------7-5~~-o||
D|-0------0------0-----||--------------||
     ----   ----    --   Padge
...And fall"           D|--------------||
...To mourn"           A|-------------o||
                       F|-4-2----------||
                       C|-----5-4-2~~--||
                       G|-------------o||
                       D|--------------||


-Breakdown-
Matt
D|--------------------------------------------------------------|
A|--------------------------------------------------------------|
F|--------------------------------------------------------------|
C|--------------------------------------------------------------|
G|-7-----7-----7-----7-----10p7p0-7~-------------5---7---9---10-|
D|---0-0---0-0---0-0---0-0-----------0-0-0-0-0-0---0---0---0----|
     - -   - -   - -   - -           - - - - - -   -   -   -
Padge
D|--------------------------------------------------------------|
A|--------------------------------------------------------------|
F|--------------------------------------------------------------|
C|-2~~~~~~~~~~~~~~~~~~~~~~~~~~~~~~~~~~~~~~~~~~~~~~~~~~~~~~~~~~~~|
G|-2~~~~~~~~~~~~~~~~~~~~~~~~~~~~~~~~~~~~~~~~~~~~~~~~~~~~~~~~~~~~|
D|-0~~~~~~~~~~~~~~~~~~~~~~~~~~~~~~~~~~~~~~~~~~~~~~~~~~~~~~~~~~~~|

Matt
D|------------------------------------------------------|
A|------------------------------------------------------|
F|------------------------------------------------------|
C|------------------------------------------------------|
G|-7~---------------------10p7p0-5~-7p5p0-3~-5p3p0-3*~~-|
D|----0-0-0-0-0-0-0-0-0-0-------------------------------|
      - - - - - - - - - -
Padge
D|------------------------------------------------------|
A|------------------------------------------------------|
F|-------------------------------------------------7*~~-|
C|-2~~~~~~~~~~~~~~~~~~~~~~~~~~~~~~~~~~~~~~~~~~~~~~------|
G|-2~~~~~~~~~~~~~~~~~~~~~~~~~~~~~~~~~~~~~~~~~~~~~~------|
D|-0~~~~~~~~~~~~~~~~~~~~~~~~~~~~~~~~~~~~~~~~~~~~~~------|

Matt
D|--------------------------------------------------------------|
A|--------------------------------------------------------------|
F|--------------------------------------------------------------|
C|--------------------------------------------------------------|
G|-7-----7-----7-----7-----10p7p0-7~-------------5---7---9---10-|
D|---0-0---0-0---0-0---0-0-----------0-0-0-0-0-0---0---0---0----|
     - -   - -   - -   - -           - - - - - -   -   -   -
Padge
D|--------------------------------------------------------------|
A|--------------------------------------------------------------|
F|--------------------------------------------------------------|
C|-2~~~~~~~~~~~~~~~~~~~~~~~~~~~~~~~~~~~~~~~~~~~~~~~~~~~~~~~~~~~~|
G|-2~~~~~~~~~~~~~~~~~~~~~~~~~~~~~~~~~~~~~~~~~~~~~~~~~~~~~~~~~~~~|
D|-0~~~~~~~~~~~~~~~~~~~~~~~~~~~~~~~~~~~~~~~~~~~~~~~~~~~~~~~~~~~~|

Matt
D|----------------------------------------------------|
A|----------------------------------------------------|
F|----------------------------------------------------|
C|----------------------------------------------------|
G|-7~---------------------10p7p0-5~-7p5p0-3~-5p3p0-2~-|
D|----0-0-0-0-0-0-0-0-0-0-----------------------------|
      - - - - - - - - - -
Padge
D|----------------------------------------------------|
A|----------------------------------------------------|
F|----------------------------------------------------|
C|-2~~~~~~~~~~~~~~~~~~~~~~~~~~~~~~~~------------------|
G|-2~~~~~~~~~~~~~~~~~~~~~~~~~~~~~~~~-x\\\\\\\\\\\\\\\\|
D|-0~~~~~~~~~~~~~~~~~~~~~~~~~~~~~~~~-x\\\\\\\\\\\\\\\\|

Matt
D|--------------------------------------------------------------|
A|--------------------------------------------------------------|
F|--------------------------------------------------------------|
C|--------------------------------------------------------------|
G|-7-----7-----7-----7-----10p7p0-7~-------------5---7---9---10-|
D|---0-0---0-0---0-0---0-0-----------0-0-0-0-0-0---0---0---0----|
     - -   - -   - -   - -           - - - - - -   -   -   -
Padge
D|---------------------------------------------------------------|
A|---------------------------------------------------------------|
F|-9~~~~~~~~~~~~~~~~~~~~~~--------9~~~~~~~~~~~~~~~~~~~~~~--------|
C|-9~~~~~~~~~~~~~~~~~~~~~~-7~~~~~-9~~~~~~~~~~~~~~~~~~~~~~-7~~~~~~|
G|-7~~~~~~~~~~~~~~~~~~~~~~-7~~~~~-7~~~~~~~~~~~~~~~~~~~~~~-5~~~~~~|
D|---------------------------------------------------------------|

Matt
D|--------------------------------------------------------|
A|--------------------------------------------------------|
F|--------------------------------------------------------|
C|--------------------------------------------------------|
G|-7~----------------------10p7p0-5~-7p5p0-3~-5p3p0-/10~~-|
D|-----0-0-0-0-0-0-0-0-0-0--------------------------------|
       - - - - - - - - - -
Padge
D|--------------------------------------------------------|
A|--------------------------------------------------------|
F|-5~~~~~~~~~~~~~~~~~~~~~~~~-2~~~~~~~~~~~~~~~~-4~~~~~~~~~~|
C|-5~~~~~~~~~~~~~~~~~~~~~~~~-2~~~~~~~~~~~~~~~~-4~~~~~~~~~~|
G|-3~~~~~~~~~~~~~~~~~~~~~~~~-0~~~~~~~~~~~~~~~~-2~~~~~~~~~~|
D|--------------------------------------------------------|

Matt
D|--------------------------------------------------------------|
A|--------------------------------------------------------------|
F|--------------------------------------------------------------|
C|--------------------------------------------------------------|
G|-7-----7-----7-----7-----10p7p0-7~-------------5---7---9---10-|
D|---0-0---0-0---0-0---0-0-----------0-0-0-0-0-0---0---0---0----|
     - -   - -   - -   - -           - - - - - -   -   -   -
Padge
D|--------------------------------------------------------------|
A|--------------------------------------------------------------|
F|-9~~~~~~~~~~~~~~~~~~~~~~--------9~~~~~~~~~~~~~~~~~~~~~--------|
C|-9~~~~~~~~~~~~~~~~~~~~~~-7~~~~~-9~~~~~~~~~~~~~~~~~~~~~-7~~~~~~|
G|-7~~~~~~~~~~~~~~~~~~~~~~-7~~~~~-7~~~~~~~~~~~~~~~~~~~~~-5~~~~~~|
D|--------------------------------------------------------------|
"Caught in the Eye Of The Storm
                          (Caught in the Eye Of The Storm)"

Matt
D|--------------------------------------------------------|
A|--------------------------------------------------------|
F|--------------------------------------------------------|
C|--------------------------------------------------------|
G|-7~----------------------10p7p0-7~-7p5p0-9~-5p3p0-/12~~-|
D|-----0-0-0-0-0-0-0-0-0-0--------------------------------|
       - - - - - - - - - -
Padge
D|--------------------------------------------------------|
A|--------------------------------------------------------|
F|-5~~~~~-------------------------------------------------|
C|-5~~~~~-------------------------------------------------|
G|-3~~~~~-------------------------------------------------|
D|--------2-2-2-2-2-2-3-3-3-3-3-3-5-5-5-5-5-5-7-7-7-7-7-7-|
          - - - - - - - - - - - - - - - - - - - - - - - -
"Caught in the Eye Of The Storm"

-Solo-
Padge (Sweep Picking)
D|-19-19p15----------15-19p15----------15-19p15----------|
A|----------17----17----------17----17----------17----17-|
F|-------------16----------------16----------------16----|
C|-------------------------------------------------------|
G|-------------------------------------------------------|
D|-------------------------------------------------------|

D|-15-17p14----------15-19p15----------15-19p15----------|
A|----------15----17----------17----17----------17----17-|
F|-------------16----------------16----------------16----|
C|-------------------------------------------------------|
G|-------------------------------------------------------|
D|-------------------------------------------------------| 

D|-19p15----------15-17p14----------12-15p12----------|
A|-------17----17----------15----15----------13----13-|
F|----------16----------------16----------------12----|
C|----------------------------------------------------|
G|----------------------------------------------------|
D|----------------------------------------------------|

D|-12-15p12----------12-15p12----------12-15p12----------|
A|----------13----13----------13----13----------13----13-|
F|-------------12----------------12----------------12----|
C|-------------------------------------------------------|
G|-------------------------------------------------------|
D|-------------------------------------------------------|

D|-12-15p12----------12-15p12----------12-14p11----------11-14p11-------|
A|----------13----13----------13----13----------12----12----------12----|
F|-------------12----------------12----------------11----------------11-|
C|----------------------------------------------------------------------|
G|----------------------------------------------------------------------|
D|----------------------------------------------------------------------|

D|-19p15----------15-19p15----------15-19p15----------|
A|-------17----17----------17----17----------17----17-|
F|----------16----------------16----------------16----|
C|----------------------------------------------------|
G|----------------------------------------------------|
D|----------------------------------------------------|

D|-15-17p14----------15-19p15----------15-19p15----------|
A|----------15----17----------17----17----------17----17-|
F|-------------16----------------16----------------16----|
C|-------------------------------------------------------|
G|-------------------------------------------------------|
D|-------------------------------------------------------| 

D|-19p15----------15-17p14----------12-------|
A|-------17----17----------15----15----------|
F|----------16----------------16-------14b~~-|
C|-------------------------------------------|
G|-------------------------------------------|
D|-------------------------------------------|
                    (tremolo pick)
D|-------------------t--t--t--t--t--t--------|
A|-12-13-15-13-15-17-15-17-19-20-19-17-19b~~-|
F|-------------------------------------------|
C|-------------------------------------------|
G|-------------------------------------------|
D|-------------------------------------------|

D|----------15----12--------|
A|-12-15-12----15-----------|
F|-------------------14~~~~-|
C|--------------------------|
G|--------------------------|
D|--------------------------|

D|----------15----12--------|
A|-12-15-12----15-----------|
F|-------------------12~~~~-|
C|--------------------------|
G|--------------------------|
D|--------------------------|

D|----------15----12-------------|
A|-12-15-12----15----------------|
F|-------------------9-11--------|
C|------------------------9-7~~~-|
G|-------------------------------|
D|-------------------------------|

D|----------15----12--------|
A|-12-15-12----15-----------|
F|-------------------14~~~~-|
C|--------------------------|
G|--------------------------|
D|--------------------------|

D|----------15----12--------|
A|-12-15-12----15-----------|
F|-------------------12~~~~-|
C|--------------------------|
G|--------------------------|
D|--------------------------|

D|----------15----12--------------------|
A|-12-15-12----15----------12~-13~-12~~-|
F|-------------------9~-11~-------------|
C|--------------------------------------|
G|--------------------------------------|
D|--------------------------------------|
-Matt Under Solo-
D||------------------------------------------------------------------------|
A||o-----------------------------------------------------------------------|
F||------------------------------------------------------------------------|
C||--9--------9--------9--------9-----5-9--------9--------9--------9-----5-|
G||o-7-777777-7-777777-7-777777-7-5h7---7-777777-7-777777-7-777777-7-5h7---|
D||------------------------------------------------------------------------|
       ------   ------   ------       -   ------   ------   ------       -

D|---------------------------------------------------------------||
A|--------------------------------------------------------------o||
F|---------------------------------------------------------------||
C|-5--------5--------5--------5----------------------------------||
G|-3-333333-3-333333-3-333333-3-7-7-7-7-7-7-7-7-9-9-9-9-9-9-9-9-o||
D|------------------------------5-5-5-5-5-5-5-5-7-7-7-7-7-7-7-7--||
     ------   ------   ------

D|-------------------------------------------------------------------------|
A|-------------------------------------------------------------------------|
F|-4-4-4-4-4-4-4-4-5~---------5-----5---------7~---------7-------------7---|
C|-4-4-4-4-4-4-4-4-5~-5-5-5-5-5-5-5-5-5-5-5-5-7~-7-7-7-7-7-7-7-7-7-7-7-7-7-|
G|-2-2-2-2-2-2-2-2-3~-3-3-3-3-3-3-3-3-3-3-3-3-5~-5-5-5-5-5-5-5-5-5-5-5-5-5-|
D|-------------------------------------------------------------------------|
                      - - - -   - -   - - - -    - - - -   - - - - - -   -
D|-------------------------------------------------------------------------------------|
A|-------------------------------------------------------------------------------------|
F|-4~---------4-------4---2-4-5~-----------5---------------------------5-----------5---|
C|-4~-4-4-4-4-4-4-4-4-4-4-2-4-5~-5-5-5-5-5-5-5-4-2~~-4~~-5~~-5-5-5-5-5-5-5-5-5-5-5-5-5-|
G|-2~-2-2-2-2-2-2-2-2-2-2-0-2-3~-3-3-3-3-3-3-----------------3-3-3-3-3-3-3-3-3-3-3-3-3-|
D|-------------------------------------------------------------------------------------|
      - - - -   - - -   -        - - - - -                   - - - - -   - - - - -   -
D|-------------------------------------------------------------------------|
A|-------------------------------------------------------------------------|
F|-7~---------7-------------7---4~---------4-------4---2-4-----5~~~~-7~~~~-|
C|-7~-7-7-7-7-7-7-7-7-7-7-7-7-7-4~-4-4-4-4-4-4-4-4-4-4-2-4-4-4-5~~~~-7~~~~-|
G|-5~-5-5-5-5-5-5-5-5-5-5-5-5-5-2~-2-2-2-2-2-2-2-2-2-2-0-2-2-2-3~~~~-5~~~~-|
D|-------------------------------------------------------------------------|
      - - - -   - - - - - -   -    - - - -   - - -   -     - -


-Verse-
Matt & Padge
D||-------------------------------------------------------------------||
A||o-----------------------------------------------------------------o||
F||-------------------------------------------------------------------||
C||------2-----0-------------------------2-----0-------------3-3-3-3--||
G||o---------------3---2-----3-2-0-2---------------3---2-----1-1-1-1-o||
D||--0-0---0-0---0---0---0-0---------0-0---0-0---0---0---0-0----------||x4
     - -   - -   -   -   - -         - -   - -   -   -   - -
-"Can you hear the thunder? Can you feel the rain, it pours
...Nail down all your windows, then barricade the doors
...Mother nature's fury, she takes you by the hand
...Showing all but mercy, wreaking death upon the land"

GO!

Matt & Padge
D|----------------------------------------------------------------|
A|----------------------------------------------------------------|
F|----------------------------------------------------------------|
C|------2----2--2-------2----2--2-------2----2--2-------2-------2-|
G|-2222-2----2--2--2222-2----2--2--2222-2----2--2--2222-2--2222-2-|
D|-0000-0----0--0--0000-0----0--0--0000-0----0--0--0000-0--0000-0-|

D|------------------------------------------------|
A|------------------------------------------------|
F|------------------------------------------------|
C|------2----2--2-------2----2--2-------2----2--2-|
G|-2222-2----2--2--2222-2----2--2--2222-2----2--2-|
D|-0000-0----0--0--0000-0----0--0--0000-0----0--0-|

Matt
D|-----------|
A|-----------|
F|-----------|
C|-----------|
G|-5-4-5-7~~-|
D|-----------|
Padge
D|-----------|
A|-----------|
F|-----------|
C|-4-2-4-5~~-|
G|-----------|
D|-----------|


-Chorus-
Matt & Padge
D||-------------------------------|
A||o------------------------------|
R||-------------------------------|
C||--9-9999-9--9999-9-9999-9-9999-|
G||o-7-7777-7--7777-7-7777-7-7777-|
D||--0------0-------0------0------|
       ----    ----   ----   ----
-"Caught in the Eye
-"We are, caught in the Eye

Matt
D|-----------------|
A|-----------------|
F|-----------------|
C|-10-10-10p9-10p9-|
G|-----------------|
D|-----------------|
   -  -  -    -
Padge
D|-----------------|
A|-----------------|
F|-9--9--9p7--9p7--|
C|-----------------|
G|-----------------|
D|-----------------|
   -  -  -    -
...Of The

Matt & Padge
D|--------------------------|
A|--------------------------|
R|--------------------5~~---|
C|-9-9999-9-9999-9-99-5~~-5-|
G|-7-7777-7-7777-7-77-3~~-5-|
D|-0------0------0--------3-|
     ----   ----   --
...Storm

D|-----------------------------|
A|-----------------------------|
F|-----------------------------|
C|-9-9999-9-9999-9-9999-9-9999-|
G|-7-7777-7-7777-7-7777-7-7777-|
D|-0------0------0------0------|
     ----   ----   ----   ----
...Did the heavens just
...All that's left just

Matt
D|-----------------|
A|-----------------|
F|-----------------|
C|-10-10-10p9-10p9-|
G|-----------------|
D|-----------------|
   -  -  -    -
Padge
D|-----------------|
A|-----------------|
F|-9--9--9p7--9p7--|
C|-----------------|
G|-----------------|
D|-----------------|
   -  -  -    -
...Open
...Bodies

Matt & Padge
D|---------------------||Matt----------||
A|---------------------||-------------o||
R|---------------------||--------------||
C|-9-9999-9-9999-9--99-||-7-5-4--------||
G|-7-7777-7-7777-7--77-||-------7-5~~-o||
D|-0------0------0-----||--------------||
     ----   ----    --   Padge
...And fall"           D|--------------||
...To mourn"           A|-------------o||
                       F|-4-2----------||
                       C|-----5-4-2~~--||
                       G|-------------o||
                       D|--------------||

TO MOURN!
Matt & Padge
D|---------------------------------|
A|---------------------------------|
F|---------------------------------|
C|-----2-----0-------------3-3-3-3-|
G|---------------3---2-----1-1-1-1-|
D|-0-0---0-0---0---0---0-0---------|
   - -   - -   -   -   - -

            
            
Suggest correction
Creating personal tab
Creating personal tab
You can edit any tab online and save it as your Personal.

You can edit, replace or remove any tab part or add personal notes – all changes will be seen only by you.

Personal tabs can be accessed anytime from any device, even offline.
Learn more »
comments
print report bad tab
6 comments total. Showing first comments.
+2 reply
Ghost Stalker 12 Jun 16, 2009 12:55 PM

yay finally, an Eye of the Storm tab thats accurate and complete, dude you're a legend xD

0 reply
JB95 274 Dec 12, 2010 10:29 AM

Great tab!
I also like that you put lyrics in the tab so we always know what part of the song we're in ^^
Good job!

0 reply
led_sevenfold 40 Oct 16, 2011 09:03 PM

Drop D....... Wrong
nah ill play it in Drop C anyway

guest
You may want to rate the tab now too:
select rating
Wanna post a correction for this tab? Suggest correction