Oops, an error
Loading. Please wait.
We have an official Fever tab made by UG professional guitarists. Check out the tab »
×
9,872 views 6 this week
1 commentread comment
1 2 3 4 5
x 4
add to favorites
×
Save as Personal and add changes to this tab that will be seen only by you. Learn more ›
×
You can save this tab as Personal to edit and correct it or add notes. All changes will be seen only by you. Learn more »
launch autoscroll
font size
0
reset
guitar tuner
backing track
0:00
0:00
edit
Autoscroll
slow
fast
+/-
esc
set tempo
stop
ok this is my version of how i play it enjoy

Song:Fever

Band:Bullet For My Valentine

Album:Fever

Intro

G-------------------------------------------------------------------------|
D-------------------------------------------------------------------------|
A-------------------------------------------------------------------------|
E-----0----------------0(HOLD OUT)----------------------------------------|

G-------------------------------------------------------------------------|
D-------------------------------------------------------------------------|
A-------------------------------------------------------------------------|
E------300000--500000--600000--5000--3-5--0-3-5-6--00---------------------|

Play these next two bars twice
G-------------------------------------------------------------------------|
D-------------------------------------------------------------------------|
A---------------------------------------------------------------5-5-5-5---|
E--3-0-0--3-0-0--532320--3-0-0--003-0-3-0-3-0-3-5--3-0-0--3-0-0-----------|


G-------------------------------------------------------------------------|
D-------------------------------------------------------------------------|
A-------------------------------------------------------------------------|
E--3-0-0--001--0-1-0-1-0-1-0-1-2------------------------------------------|
Pre-verse(1st Time)

G-------------------------------------------------------------------------|
D-------------------------------------------------------------------------|
A-------------------------------------------------------------------------|
E----------------------------0(HOLD)---------------------------------3----|

(It's hot as hell in here.../So I'm looking for a spark...)

Verse (PLAY THIS TWICE BOTH VERSES)
G---------------------------------------------------------------------------|
D---------------------------------------------------------------------------|
A---------------------------------------------------------------------------|
E-000000000000532320-000000000000532320-333333333333532320-555555555-754754-|


(She hits the stage......She Makes me crave)
Pre-Chorus
G---------------------------------------------------------------------------|
D---------------------------------------------------------------------------|
A---------------------------------------------------------------------------|
E--0(HOLD)---------------0(HOLD)----300000-500000--600000--3-5--0-3-5-6-----|

(I Can feel your fever..............takin over...)
Chorus (BASICALLY THE SECOND PART OF THE INTRO)(PLAY TWICE)
G---------------------------------------------------------------------------|
D---------------------------------------------------------------------------|
A---------------------------------------------------------------5-5-5-5-----|
E--3-0-0--3-0-0--532320--3-0-0--003-0-3-0-3-0-3-5--3-0-0--3-0-0-------------|

G---------------------------------------------------------------------------|
D---------------------------------------------------------------------------|
A---------------------------------------------------------------------------|
E--3-0-0--001--0-1-0-1-0-1-0-1-2--------------------------------------------|

Bridge (come here you naughty girl...)
G---------------------------------------------------------------------------|
D---------------------------------------------------------------------------|
A---------------------------------------------------------------------------|
E-000000-3000000-30000000-30000000-30000000-3000000-3000000-3000000-3000000-|

(you're such a tease...) (LOSING CONTROL! you're all i want...)

G---------------------------------------------------------------------------|
D---------------------------------------------------------------------------|
A----555555-----------------------------------------------------------------|
E----------5-0000000-30000000-30000000-30000000---0000000-3333333-0-555555--|

G----------------|
D----------------|
A----------------|
E--0-------------|
(Woah)


BACK TO CHORUS

Outro
G---------------------------------------------------------------------------|
D---------------------------------------------------------------------------|
A-----------------------------------------333333----------------------------|
E--0000353-000666--000055555---0035300------------0-------------------------|

And thats it!
Hope you guys enjoyed it have fun learnin it and have fun playin it!!!BULLET FOR MY 
FUCKING ROCKS!!!!!!!!! rock on guys and girls!!!!

            
            
Suggest correction
Creating personal tab
Creating personal tab
You can edit any tab online and save it as your Personal.

You can edit, replace or remove any tab part or add personal notes – all changes will be seen only by you.

Personal tabs can be accessed anytime from any device, even offline.
Learn more »
comments
print report bad tab
1 comment total.
0 reply
TheMasterofP 663 Jun 28, 2012 05:24 AM

Most of the parts seem to be correct, if you meant the Drop C tuning. On top, you wrote Drop C, but in your tab, it's standard...
But some parts are completly missing...

guest
Wanna post a correction for this tab? Suggest correction