Oops, an error
Loading. Please wait.
We have an official Forever And Always tab made by UG professional guitarists. Check out the tab »
×
10,887 views 6 this week
1 commentread comment
1 2 3 4 5
x 5
add to favorites
×
Save as Personal and add changes to this tab that will be seen only by you. Learn more ›
×
You can save this tab as Personal to edit and correct it or add notes. All changes will be seen only by you. Learn more »
launch autoscroll
font size
0
reset
guitar tuner
edit
Autoscroll
slow
fast
+/-
esc
set tempo
stop
-------------------------------------------------------------------------------
			     forever and always - bullet for my valentine
-------------------------------------------------------------------------------

Tabbed By : jake
e-mail:

Tuning:drop C

  start of intro
F|-------------------------------------------------------------------------|
C|-------------------------------------------------------------------------|
G|---------------------------------2---------------------------------------|
C|-0---------------------------------------------------------0-------------|

  intro/ chorus (once in intro-twice in chorus)
F|---------------------------------------------------------------|
C|---------------------------------------------------------------|
G|-----------------------2222-2222-2222-2222-4444-4444-4444-4444-|
C|-0000-0000-0000-009/10-----------------------------------------|

  pre verse breakdown
|----------------|
|----------------|
|--5-4-2-0-------|
|----------2-----|


  verse- play twice
|-------------------------------------------------------------|
|-------------------------------------------------------------|
|----------------------------9-------9-9/11-----7---9-7/9-7/9-|
|-00000------------------9999-9999999-9-----7777-777-7--------|

  pre chorus
|----------------------------------|
|----------------------------------|
|----------------------------------|
|-55555---00000--55555---777777777-|
  backing to lil solo bit- play when chords played
|---------------------------------------------------------------------------|
|---------------------------------------------------------------------------|
|---------------------------------------------------------------------------|
|-0-----------------------------0---------------------------0---------------|

 instrumental

  start off with
F|-------------------------------------------------------------------------|
C|-------------------------------------------------------------------------|
G|---------------------------------2---------------------------------------|
C|-0---------------------------------------------------------0-------------|

  then play twice
F|---------------------------------------------------------------|
C|---------------------------------------------------------------|
G|-----------------------2222-2222-2222-2222-4444-4444-4444-4444-|
C|-0000-0000-0000-009/10-----------------------------------------|

  then- repeat several times, work it out by listening to song
(about 9 times i think)
|------------------------------------------|
|------------------------------------------|
|--5555-5555-5555-5555-2222-2222-2222-2222-|
|------------------------------------------|
  then- repeat till end of song
|-------------------------------------------------------------|
|-------------------------------------------------------------|
|-55-55-55-55-55-55-55-55-55-55-22-22-22-22-22-22-22-22-22-22-|
|-------------------------------------------------------------|

order:
start of intro
intro
pre verse breakdown
verse
pre chorus
chorus
pre verse breakdown
verse
pre chorus
chorus
backing
instrumental (in order above)

soz for any strange lingo

| /  slide up
| \  slide down
| h  hammer-on
| p  pull-off
| ~  vibrato
| +  harmonic
| x  Mute note
===============================================================================
Suggest correction
Creating personal tab
Creating personal tab
You can edit any tab online and save it as your Personal.

You can edit, replace or remove any tab part or add personal notes – all changes will be seen only by you.

Personal tabs can be accessed anytime from any device, even offline.
Learn more »
comments
print report bad tab
1 comment total.
0 reply
raycooke 10 Feb 06, 2012 01:29 PM

Sorry Jake, but I gotta help you out here. Reading a long was hard when there was so much that didn't match the song, here are my corrections, play it for yourself too
Tuning:drop C

start of intro
F|-----------------------------------------------------------------------------------|
C|-----------------------------------------------------------------------------------|
G|-------------------------------------------2---------------------------------------|
C|-0-------------------------------------------------------------5-------------------|

intro/ chorus (once in intro-twice in chorus)
F|----------------------------------------------------------------------------------|
C|----------------------------------------------------------------------------------|
G|------------------------------------------2222-2222-2222-2222---------------------|
C|-0000-0000-0000-0000-0000-0000-0000-008/9---------------------5555-5555-5555-5555-|

pre verse breakdown
|----------------|
|----------------|
|--5-4-2-0-------|
|----------2-0---|

verse- play twice
|-------------------------------------------------------------|
|-------------------------------------------------------------|
|----------------------------9-------9-9/10-----7---9-7/9-7/9-|
|-00000------------------9999-9999999-9-----7777-777-7--------|

pre chorus
|----------------------------------|
|----------------------------------|
|----------------------------------|
|-55555---00000--55555---777777777-|

backing to lil solo bit- play when chords played
|---------------------------------------------------------------------------|
|---------------------------------------------------------------------------|
|---------------------------------------------------------------------------|
|-0-----------------------------0---------------------------0---------------|

instrumental 2:39

start off with 2:52 drums
F|-------------------------------------|
C|-------------------------------------|
G|-------------------------------------|
C|-0----------------9/10-0-------------|
4 measures after hit 9/10 on low c at 2:58

come in with the 3rd guitar and play softly till the end
F|---------------------------------------------------------------------------------|
C|---------------------------------------------------------------------------------|
G|-----------------------------------------2222-2222-2222-2222---------------------|
C|-0000-0000-0000-0000-0000-0000-0000-0000---------------------5555-5555-5555-5555-|

order:
start of intro
intro
pre verse breakdown
verse
pre chorus
chorus
pre verse breakdown
verse
pre chorus
chorus
backing
instrumental (in order above)

sorry for any strange lingo

| / slide up
| \ slide down
| h hammer-on
| p pull-off
| ~ vibrato
| + harmonic
| x Mute note

guest
Wanna post a correction for this tab? Suggest correction