Oops, an error
Loading. Please wait.
We have an official Forever And Always tab made by UG professional guitarists. Check out the tab »
×
245,312 views 48 this week
11 commentsread comments
1 2 3 4 5
x 38
add to favorites
×
Save as Personal and add changes to this tab that will be seen only by you. Learn more ›
×
You can save this tab as Personal to edit and correct it or add notes. All changes will be seen only by you. Learn more »
launch autoscroll
font size
0
reset
how to read this tab
guitar tuner
edit
Autoscroll
slow
fast
+/-
esc
set tempo
stop
BFMV- Forever and Always
Tuning- Drop C (CGCFAD)



I'm only tabbing out 1 guitar part, the other part is basicly just rythem.


  [Intro]

        D--------------|
        A--------------|
        F--------------|
        C--------------|
        G--/9-7-5-4----|
        C-----------2b-|

  [Main Riff]

        D--------------------------------------|
        A--------------------------------------|
        F-------7------6------9------7-----6/7-|
        C-----7------7------7------7-----7-----|
        G---5------5------5------5-----5-------|
        C--------------------------------------|
            . .    . .    . .    . .   . .

        D--------------------------------------|
        A--------------------------------------|
        F-------7------6------9------7-----7/6-|
        C-----7------7------7------7-----7-----|
        G---5------5------5------5-----5-------|
        C--------------------------------------|
            . .    . .    . .    . .   . .

        D----------------------------------------|
        A--------3------2-----5-----3----2/3-----|
        F----------------------------------------|
        C-----4-----4-----4-----4-----4----------|
        G---2-----2-----2-----2-----2------------|
        C----------------------------------------|
            . .   . .   . .   . .   . .


        D------------------------------------------|
        A------------------------------------------|
        F--------7-----6------9-----7-----6/7------|
        C------------------------------------------|
        G-----5-----5-----5------5------5----------|
        C---5-----5-----5------5------5------------|
            . .   . .   . .    . .    . .

        Repeat Intro Riff Then Play-

   [Verse]

        D--------------------------------------------------------------|
        A--------------------------------------------------------------|
        F--------------------------------------------------------------|
        C--00000--0~--------7---------7----7/9------5-------5--5--4575-|
        G--00000--0~---5555---55555555---5-----4444---44444--4--4------|
        C--00000--0~---------------------------------------------------|
           .....       ....   ........   .     ....   .....  .  .

   [PreChorus]

        D-----------------------------------------------------------------|
        A----------88887777-----------------------888877777777-1010101010-|
        F----------77777777-----------------------777777777777--999999999-|
        C---55555--55555555---/-0-0-0--0~--55555--555555555555--777777777-|
        G---55555--55555555---/-0-0-0--0~--55555--555555555555--777777777-|
        C---55555--55555555---/-0-0-0--0~--55555--555555555555--777777777-|
            .....               . . .      .....

        Main riff
        Verse
        PreChorus
        Main Riff


   [Bridge]

           
       D-------------------------------------------------|
       A---15-----10----------15-----10------------------|
       F ------------------------------------------------|
       C------0------0---12~------0-----14p0-12/14p0-----|
       G-------------------------------------------------|
       C-------------------------------------------------|
       

           
       D-------------------------------------------------|
       A-------------------------------------------------|
       F---14----12----11~----14----12----11----11/12----|
       C------0------0-----------0------0-----0-------0--|
       G-------------------------------------------------|
       C-------------------------------------------------|
       


       keep playing main riff till the end of the song

       also fades into this part
            
          (A and F string 2 separate parts)
        
       D---------------------------------------|
       A---7--5--8--7--5/7~----7--5--8--7--7/5-|
       F---7--6--9--7--6/7~----7--6--9--7--7/6-|
       C---------------------------------------|
       G---------------------------------------|
       C---------------------------------------|


      ThE eNd



************************************

. PalmMute
/ Slide
b Bend
~ Hold note   

************************************
Suggest correction
Creating personal tab
Creating personal tab
You can edit any tab online and save it as your Personal.

You can edit, replace or remove any tab part or add personal notes – all changes will be seen only by you.

Personal tabs can be accessed anytime from any device, even offline.
Learn more »
comments
print report bad tab
11 comments total. Showing first comments.
0 reply
travis012345678 78 Feb 18, 2008 01:04 PM

Nice work, but shouldn't one guitar be doing the lower pitched chords while the other does this?

|---------------------------|
|-----3-----2-----5-----2/3-|
|-2-2---2-2---2-2---2-2-----|
|---------------------------|
|---------------------------|
|---------------------------|

|---------------------------|
|-----3-----2-----5-----3/2-|
|-2-2---2-2---2-2---2-2-----|
|---------------------------|
|---------------------------|
|---------------------------|

I could be wrong, but that's the way I play it and it sounds right.

+1 reply
bfmvdisturbed92 102 Feb 26, 2008 07:48 AM

If you listen close to the music the two palm muted notes change instead of staying the same. you put 22 and it sounds like it changes from 2 to 4. I noticed all of the othter tabs just had the same note to palm mute and I think it's wrong. IDK this is just what i think it sounds like

0 reply
bfmvdisturbed92 102 Feb 26, 2008 08:01 AM

oh..I forgot..
and when the guitar is playing
d--------------- ----------
a--------------- ----------
f-----------7--- the other one plays ---------- which is the same
c------7-------- a rythem with- -----0---- as f----7-----
g--5------------ -----0---- c----7-----
c--.---.-------- -----0---- g----5-----

same with the next one

--------------- ---------------
-------------3- ---------------
--------------- -------4-------
--------4------ other playing -------4-------
---2----------- ryhtem with- -------2-------
--------------- ---------------


then

---------------- ------------------
---------------- ------------------
-------------9-- rythem playing- ------------------
---------------- ---------5--------
---------5------ ---------5--------
----5----------- ---------5--------

so... the palm muted notes are the same as what the rythem notes are.

guest
You may want to rate the tab now too:
select rating
Wanna post a correction for this tab? Suggest correction