Oops, an error
Loading. Please wait.
We have an official Forever And Always tab made by UG professional guitarists. Check out the tab »
×
51,433 views 6 this week
3 commentsread comments
1 2 3 4 5
x 20
add to favorites
×
Save as Personal and add changes to this tab that will be seen only by you. Learn more ›
×
You can save this tab as Personal to edit and correct it or add notes. All changes will be seen only by you. Learn more »
launch autoscroll
font size
0
reset
how to read this tab
guitar tuner
edit
Autoscroll
slow
fast
+/-
esc
set tempo
stop
Bullet For My Valentine - Forever And Always
Drop C Tuning

I got most of this tab off the version by 'bfmvdisturbed92' I think it was at memory. 
I just decided to tab the other guitar parts, seeing as he only did Padge's part. 
Anyway, enjoy!

Guitar 1: Lead
Guitar 2: Rhythm
Guitar 3/4: End harmony
Guitar 5: Strings (Ending)

Intro Riff -

       Guitar 1 (x1)
        D|----------------|
        A|----------------|
        F|----------------|
        C|----------------|
        G|--/9-7-5-4------|
        C|-----------2b---|

       Guitar 2 (x1)
        D|----------------|
        A|----------------|
        F|----------------|
        C|----------------|
        G|----------------|
        C|--/12-11-9-7-2b-|



  Main Riff -

       Guitar 1 (x3)
        D|--------------------------------------|
        A|--------------------------------------|
        F|-------7------6------9------7-----6/7-|
        C|-----7------7------7------7-----7-----|
        G|---5------5------5------5-----5-------|
        C|--------------------------------------|
             . .    . .    . .    . .   . .

        D|--------------------------------------|
        A|--------------------------------------|
        F|-------7------6------9------7-----7/6-|
        C|-----7------7------7------7-----7-----|
        G|---5------5------5------5-----5-------|
        C|--------------------------------------|
             . .    . .    . .    . .   . .

        D|--------------------------------------|
        A|--------3------2-----5-----3----2/3---|
        F|--------------------------------------|
        C|-----4-----4-----4-----4-----4--------|
        G|---2-----2-----2-----2-----2----------|
        C|--------------------------------------|
             . .   . .   . .   . .   . .

        D|--------------------------------------|
        A|--------------------------------------|
        F|--------7-----6------9-----7-----6/7--|
        C|--------------------------------------|
        G|-----5-----5-----5------5------5------|
        C|---5-----5-----5------5------5--------|
             . .   . .   . .    . .    . .

       Guitar 2
        D|---------------|
        A|---------------|
        F|------4~-------|\___(First time)
        C|--0~--4~--5~---|/
        G|--0~--2~--5~---|
        C|--0~------5~---|

        D|-------------------------------------------------------|
        A|-------------------------------------------------------|
        F|-------------------------------------------------------|
        C|-------------------------------------------------------|
        G|------------------------4h5-----------------------5p4--|
        C|--0000000000-0000000000-----0000000000-0000000000------|
            .......... ..........     .......... ..........       \___(Play both second
                                                                 /    and third time)
        D|-------------------------------------------------------|
        A|-------------------------------------------------------|
        F|-------------------------------------------------------|
        C|-------------------------------------------------------|
        G|--2222222222-2222222222--------------------------------|
        C|----------------------------5555555555-5555555555------|
            .......... ..........     .......... ..........



Fill -

       Guitar 1 (x1)
        D|----------------|
        A|----------------|
        F|----------------|
        C|----------------|
        G|--/9-7-5-4------|
        C|-----------2b---|

       Guitar 2 (x1)
        D|----------------|
        A|----------------|
        F|----------------|
        C|----------------|
        G|----------------|
        C|--/12-11-9-7-2b-|



   Verse Riff -
       
       Guitar 1 (x2)
        D|--------------------------------------------------------------|
        A|--------------------------------------------------------------|
        F|--------------------------------------------------------------|
        C|--00000--0~--------7---------7----7/9------5-------5--4--4575-|
        G|--00000--0~---5555---55555555---5-----4444---44444--4--4------|
        C|--00000--0~---------------------------------------------------|
            .....       ....   ........   .     ....   .....  .  .

       Guitar 2 (x2)
        D|--------------------------------------------------------------|
        A|--------------------------------------------------------------|
        F|--------------------------------------------------------------|
        C|--00000--0~--------4---------4----4/5------3-------3--2--0242-|
        G|--00000--0~---2222---22222222---2-----0000---00000--0--0------|
        C|--00000--0~---------------------------------------------------|
            .....       ....   ........   .     ....   .....  .  .



   Pre Chorus-

       Guitar 1
        D|------------------------------------------------------------|
        A|--------------8-7--------------------------8-7--------------|
        F|------------------7----------------------------7------------|
        C|---55555--5~---------0-0-0--0~---55555--5---------777777777-|
        G|---55555--5~---------0-0-0--0~---55555--5---------777777777-|
        C|---55555--5~---------0-0-0--0~---55555--5---------777777777-|
             .....             . . .       .....

       Guitar 2
        D|--------------------------------------------------------|
        A|--------------------------------------------------------|
        F|--------------------------------------------------------|
        C|---55555--5~---/-\---0-0-0--0~---55555--5-----777777777-|
        G|---55555--5~---/-\---0-0-0--0~---55555--5-----777777777-|
        C|---55555--5~---/-\---0-0-0--0~---55555--5-----777777777-|
             .....             . . .       .....



   Chorus -

       Guitar 1 (x2)
        D|--------------------------------------|
        A|--------------------------------------|
        F|-------7------6------9------7-----6/7-|
        C|-----7------7------7------7-----7-----|
        G|---5------5------5------5-----5-------|
        C|--------------------------------------|
             . .    . .    . .    . .   . .

        D|--------------------------------------|
        A|--------------------------------------|
        F|-------7------6------9------7-----7/6-|
        C|-----7------7------7------7-----7-----|
        G|---5------5------5------5-----5-------|
        C|--------------------------------------|
             . .    . .    . .    . .   . .

        D|--------------------------------------|
        A|--------3------2-----5-----3----2/3---|
        F|--------------------------------------|
        C|-----4-----4-----4-----4-----4--------|
        G|---2-----2-----2-----2-----2----------|
        C|--------------------------------------|
             . .   . .   . .   . .   . .

        D|--------------------------------------|
        A|--------------------------------------|
        F|--------7-----6------9-----7-----6/7--|
        C|--------------------------------------|
        G|-----5-----5-----5------5------5------|
        C|---5-----5-----5------5------5--------|
             . .   . .   . .    . .    . .

       Guitar 2
        D|-------------------------------------------------------|
        A|-------------------------------------------------------|
        F|-------------------------------------------------------|
        C|-------------------------------------------------------|
        G|------------------------4h5-----------------------5p4--|
        C|--0000000000-0000000000-----0000000000-0000000000------|
            .......... ..........     .......... ..........       \___(Play twice)
                                                                   /
        D|-------------------------------------------------------|
        A|-------------------------------------------------------|
        F|-------------------------------------------------------|
        C|-------------------------------------------------------|
        G|--2222222222-2222222222--------------------------------|
        C|----------------------------5555555555-5555555555------|
            .......... ..........     .......... ..........

     
Fill -

       Guitar 1 (x1)
        D|----------------|
        A|----------------|
        F|----------------|
        C|----------------|
        G|--/9-7-5-4------|
        C|-----------2b---|

       Guitar 2 (x1)
        D|----------------|
        A|----------------|
        F|----------------|
        C|----------------|
        G|----------------|
        C|--/12-11-9-7-2b-|


   Verse Riff -
       
       Guitar 1 (x2)
        D|--------------------------------------------------------------|
        A|--------------------------------------------------------------|
        F|--------------------------------------------------------------|
        C|--00000--0~--------7---------7----7/9------5-------5--4--4575-|
        G|--00000--0~---5555---55555555---5-----4444---44444--4--4------|
        C|--00000--0~---------------------------------------------------|
            .....       ....   ........   .     ....   .....  .  .

       Guitar 2
        D|--------------------------------------------------------------|
        A|--------------------------------------------------------------|
        F|--------------------------------------------------------------|
        C|--00000--0~--------4---------4----4/5------3-------3--2--0242-|
        G|--00000--0~---2222---22222222---2-----0000---00000--0--0------|
        C|--00000--0~---------------------------------------------------|
            .....       ....   ........   .     ....   .....  .  .

   Pre Chorus-

       Guitar 1
        D|------------------------------------------------------------|
        A|--------------8-7--------------------------8-7--------------|
        F|------------------7----------------------------7------------|
        C|---55555--5~---------0-0-0--0~---55555--5---------777777777-|
        G|---55555--5~---------0-0-0--0~---55555--5---------777777777-|
        C|---55555--5~---------0-0-0--0~---55555--5---------777777777-|
             .....             . . .       .....

       Guitar 2
        D|--------------------------------------------------------|
        A|--------------------------------------------------------|
        F|--------------------------------------------------------|
        C|---55555--5~---/-\---0-0-0--0~---55555--5-----777777777-|
        G|---55555--5~---/-\---0-0-0--0~---55555--5-----777777777-|
        C|---55555--5~---/-\---0-0-0--0~---55555--5-----777777777-|
             .....             . . .       .....



   Chorus -

       Guitar 1 (x2)
        D|--------------------------------------|
        A|--------------------------------------|
        F|-------7------6------9------7-----6/7-|
        C|-----7------7------7------7-----7-----|
        G|---5------5------5------5-----5-------|
        C|--------------------------------------|
             . .    . .    . .    . .   . .

        D|--------------------------------------|
        A|--------------------------------------|
        F|-------7------6------9------7-----7/6-|
        C|-----7------7------7------7-----7-----|
        G|---5------5------5------5-----5-------|
        C|--------------------------------------|
             . .    . .    . .    . .   . .

        D|--------------------------------------|
        A|--------3------2-----5-----3----2/3---|
        F|--------------------------------------|
        C|-----4-----4-----4-----4-----4--------|
        G|---2-----2-----2-----2-----2----------|
        C|--------------------------------------|
             . .   . .   . .   . .   . .

        D|--------------------------------------|
        A|--------------------------------------|
        F|--------7-----6------9-----7-----6/7--|
        C|--------------------------------------|
        G|-----5-----5-----5------5------5------|
        C|---5-----5-----5------5------5--------|
             . .   . .   . .    . .    . .

       Guitar 2 (x2)
        D|-------------------------------------------------------|
        A|-------------------------------------------------------|
        F|-------------------------------------------------------|
        C|-------------------------------------------------------|
        G|------------------------4h5-----------------------5p4--|
        C|--0000000000-0000000000-----0000000000-0000000000------|
            .......... ..........     .......... ..........      | 
                                                                 | 
        D|-------------------------------------------------------|
        A|-------------------------------------------------------|
        F|-------------------------------------------------------|
        C|-------------------------------------------------------|
        G|--2222222222-2222222222--------------------------------|
        C|----------------------------5555555555-5555555555------|
            .......... ..........     .......... ..........



Fill -

       Guitar 1 (x1)
        D|----------------|
        A|----------------|
        F|----------------|
        C|----------------|
        G|--/9-7-5-4------|
        C|-----------2b---|

       Guitar 2 (x1)
        D|----------------|
        A|----------------|
        F|----------------|
        C|----------------|
        G|----------------|
        C|--/12-11-9-7-2b-|



   Bridge – 
       Guitar 1 is incomplete. I only did the little notes I could hear.

      Guitar 1
       D|----10-------------------------------------------------|
       A|--------------------------------10------------10-------|
       F| -------12----7/9------------------12-11--9-------12-11|
       C|-------------------------------------------------------|
       G|-------------------------------------------------------|
       C|-------------------------------------------------------|

       Guitar 2
        D|------------|
        A|------------|
        F|------------|
        C|--0~-0~-0~--|
        G|--0~-0~-0~--|
        C|--0~-0~-0~--|


   Interlude – 

       Guitar 1 (Plays till the end)
        D|--------------------------------------|
        A|--------------------------------------|
        F|-------7------6------9------7-----6/7-|
        C|-----7------7------7------7-----7-----|
        G|---5------5------5------5-----5-------|
        C|--------------------------------------|
             . .    . .    . .    . .   . .

        D|--------------------------------------|
        A|--------------------------------------|
        F|-------7------6------9------7-----7/6-|
        C|-----7------7------7------7-----7-----|
        G|---5------5------5------5-----5-------|
        C|--------------------------------------|
             . .    . .    . .    . .   . .

        D|--------------------------------------|
        A|--------3------2-----5-----3----2/3---|
        F|--------------------------------------|
        C|-----4-----4-----4-----4-----4--------|
        G|---2-----2-----2-----2-----2----------|
        C|--------------------------------------|
             . .   . .   . .   . .   . .

        D|--------------------------------------|
        A|--------------------------------------|
        F|--------7-----6------9-----7-----6/7--|
        C|--------------------------------------|
        G|-----5-----5-----5------5------5------|
        C|---5-----5-----5------5------5--------|
             . .   . .   . .    . .    . .



       Guitar 2 (Plays with guitar 1 till the end)
        D|--------------------------|
        A|--------------------------|
        F|--------------------------|\___(First time is mute)
        C|--------------------------|/
        G|--------------------------|
        C|--------------------------|

        D|---------------------------------------------------|
        A|---------------------------------------------------|
        F|---------------------------------------------------|
        C|---------------------------------------------------|
        G|---------------------------------------------------|
        C|--0000000000-0000000000-0000000000-0000000000------|
            .......... .......... .......... ..........       \___(Play this part once)
                                                               /    
        D|---------------------------------------------------|
        A|---------------------------------------------------|
        F|---------------------------------------------------|
        C|---------------------------------------------------|
        G|--2222222222-222222222-----------------------------|
        C|-----------------------5555555555-5555555555-------|
            .......... ......... .......... ..........

        D|---------------------------------------------------|
        A|------7--5--8--7-5h7--------7--5--8--7-7p5---------|
        F|---------------------------------------------------|
        C|---------------------------------------------------|
        G|---------------------------------------------------|
        C|--0000-00-00-00-0-------0000-00-00-00-0------------|    (Play this when it starts
            .... .. .. .. .       .... .. .. .. .             \___ to harmonise with the
                                                              /    main riff and play till
        D|---------------------------------------------------|     the end)
        A|------7--5--8--7-5h7--------7--5--8--7-7p5---------|
        F|---------------------------------------------------|
        C|---------------------------------------------------|
        G|--2222-22-22-22-2----------------------------------|
        C|------------------------5555-55-55-55-5------------|
            .... .. .. .. .       .... .. .. .. .             

       Guitar 3 (Comes in first)
        D|---------------------------------------|
        A|---------------------------------------|
        F|---7--6--9--7--6/7~----7--6--9--7--7/6-|\___(Play to the end)
        C|---------------------------------------|/
        G|---------------------------------------|
        C|---------------------------------------|

       Guitar 4 (Comes in the second time)
        D|---------------------------------------|
        A|---7--5--8--7--5/7~----7--5--8--7--7/5-|
        F|---------------------------------------|\___(Play to the end)
        C|---------------------------------------|/
        G|---------------------------------------|
        C|---------------------------------------|


       Guitar 5 (5:11-5:45)
        D|---10-9-10-----10-9-10-------|
        A|-----------10-----------12---|
        F|-----------------------------|\___repeat where necessary
        C|-----------------------------|/
        G|-----------------------------|
        C|-----------------------------|

            
            
Suggest correction
Creating personal tab
Creating personal tab
You can edit any tab online and save it as your Personal.

You can edit, replace or remove any tab part or add personal notes – all changes will be seen only by you.

Personal tabs can be accessed anytime from any device, even offline.
Learn more »
comments
print report bad tab
3 comments total.
0 reply
codycoffey 135 Jan 31, 2009 11:44 AM

thanks dude, i wanted to learn both guitar parts, and i did! this is my fav BFMV song, and i got both cds, and they are my fav band. Great Song 5/5 Stars Dude!

0 reply
ClassicalCousin 10 Jan 08, 2010 04:41 PM

beastly dude great tab i love it. this is also my fav. song by bfmv

0 reply
VoXBOss2011 130 Jan 18, 2013 03:18 PM

Thanks for tabbing both parts! It's really helpful!

guest
You may want to rate the tab now too:
select rating
Wanna post a correction for this tab? Suggest correction