Oops, an error
Loading. Please wait.

Four Words To Choke Upon bass

version 2
version 2

Whole song

Interactive

6,938 views 1 this week
1 commentread comment
1 2 3 4 5
x 5
add to favorites
×
Save as Personal and add changes to this tab that will be seen only by you. Learn more ›
×
You can save this tab as Personal to edit and correct it or add notes. All changes will be seen only by you. Learn more »
launch autoscroll
font size
0
reset
guitar tuner
backing track
0:00
0:00
edit
Autoscroll
slow
fast
+/-
esc
set tempo
stop
#----------------------------------PLEASE NOTE---------------------------------#
#This file is the author's own work and represents their interpretation of the #
#song. You may only use this file for private study, scholarship, or research. #
#------------------------------------------------------------------------------##

                      FOUR WORDS (TO CHOKE UPON) (Bassline)
                     As recorded by Bullet For My Valentine
                         (Released as a Single in 2005)

Words and Music by Bullet For My Valentine
Transcribed by CommdrOrion

Gtr I (C G C F) - 'Untitled'

   Intro
    Slowly Q=75
   4/4
    Gtr I
    W          +W           W          +W
||-----------|------------|----------|---------||
||o----------|------------|----------|--------o||
||o----------|------------|----------|--------o||
||--0--------|-(0)--------|-0--------|-(0)-----||


   Verse
    Fast Metal Q=188
    E E E Q.   E E   E Q.   E E E E   H    H      H    Q.   E
||-----------------|----------------|-----------|--------------|
||o----------------|----------------|-----------|--------------|
||o----------------|----------------|-----------|--------------|
||--0-0-0------0-0-|-0------0-0-0-0-|-0---------|-----------1--|


  +E  E E E H      H    Q.   E   +E  E E E H      H.        Q
|----------------|-------------|----------------|---------------|
|----------------|-------------|----------------|---------------|
|----------------|-------------|----------------|---------------|
|-(1)-0-0--------|-----------1-|-(1)-0-0--------|---------/12\--|


  E E E Q.   E E   E Q.   E E E E   H    H      H    Q.   E
|----------------|----------------|-----------|-------------|
|----------------|----------------|-----------|-------------|
|----------------|----------------|-----------|-------------|
|-0-0-0------0-0-|-0------0-0-0-0-|-0---------|-----------1-|


  E E E E H      H    Q.   E   +E  E E E H      H.        Q
|--------------|-------------|----------------|---------------|
|--------------|-------------|----------------|---------------|
|--------------|-------------|----------------|---------------|
|-1-0-0--------|-----------1-|-(1)-0-0--------|---------/12\--|


  E E E Q.   E E   E Q.   E E E E   H    H      W
|----------------|----------------|-----------|------||
|----------------|----------------|-----------|------||
|----------------|----------------|-----------|------||
|-0-0-0------0-0-|-0------0-0-0-0-|-3---------|------||


 Chorus
  E E E E E E E E   E E E E E E E E   Q  E E E E E E   E Q.   E Q.
|-----------------|-----------------|----------------|---------------|
|-----------------|-----------------|----------------|---------------|
|-5-5-5-5-5-5-5-5-|-5-5-5-5-5-5-5-5-|-1--1-1-1-1-1-1-|-0-0-----------|
|-----------------|-----------------|----------------|--------3-3----|


  E E E E E E E E   E E E E E E E E   Q  E E E E E E   E Q.   E Q.
|-----------------|-----------------|----------------|---------------|
|-----------------|-----------------|----------------|---------------|
|-5-5-5-5-5-5-5-5-|-5-5-5-5-5-5-5-5-|-1--1-1-1-1-1-1-|-3-3----0-0----|
|-----------------|-----------------|----------------|---------------|


  E E E E E E E E   E E E E E E E E   Q  E E E E E E   E Q.   E Q.
|-----------------|-----------------|----------------|---------------|
|-----------------|-----------------|----------------|---------------|
|-5-5-5-5-5-5-5-5-|-5-5-5-5-5-5-5-5-|-1--1-1-1-1-1-1-|-0-0-----------|
|-----------------|-----------------|----------------|--------3-3----|


  E E E E E E E E   E E E E E E E E   W          W
|-----------------|-----------------|----------|------||
|-----------------|-----------------|----------|------||
|-5-5-5-5-5-5-5-5-|-5-5-5-5-5-5-5-5-|----------|------||
|-----------------|-----------------|----------|------||


 Pre-Verse
  E E E E E E E E   E E E E E E E E   E E E E E E E E   E E E E E Q.
|-----------------|-----------------|-----------------|----------------|
|-----------------|-----------------|-----------------|----------------|
|-------1-------1-|---------3-5-3-5-|-------1-------1-|-------1-0------|
|-0-0-0---0-0-0---|-0-0-0-0---------|-0-0-0---0-0-0---|-0-0-0----------|


            2/4    4/4
  W          H      E E E E E E E E   E E E E E E E E
|----------|------|-----------------|-----------------|
|----------|------|-----------------|-----------------|
|----------|------|-------1-------1-|---------3-5-3-5-|
|----------|------|-0-0-0---0-0-0---|-0-0-0-0---------|


                   1.                 2.
                                                                2/4
  E E E E E E E E   E E E E H         E E E  E H      W          H
|-----------------|----------------||---------------|----------|------||
|-----------------|---------------o||---------------|----------|------||
|-------1-------1-|-------1-------o||---------------|----------|------||
|-0-0-0---0-0-0---|-0-0-0---7\-----||-0-0-0-13------|----------|------||


 Breakdown
 4/4
  W          H    Q  E E   W            W
|----------|-------------|----------|---------|
|----------|-------------|----------|---------|
|----------|-------------|----------|---------|
|----------|---------1-1-|----------|-/12\----|


  E E E E E E E E   E E E E E Q.     E E E E E E E E   E E E E E  E  +Q
|-----------------|----------------|-----------------|---------------------|
|-----------------|----------------|-----------------|---------------------|
|-----------------|----------------|-----------------|---------------------|
|-0-0-0-1-0-0-0-1-|-0-0-0-1-0------|-0-0-0-1-0-0-0-1-|-0-0-0-1-0-12-(12)\--|


 Guitar Solo
  E E E E E E E E   E E E E E Q.     E E E E E E E E   E E E E E Q.
|-----------------|----------------|-----------------|----------------|
|-----------------|----------------|-----------------|----------------|
|-----------------|----------------|-----------------|----------------|
|-0-0-0-1-0-0-0-1-|-0-0-0-1-0------|-0-0-0-1-0-0-0-1-|-0-0-0-1-0------|


  E E E E E E E E   E E E E E Q.     E E E E E E E E   E E E E E  E  +Q
|-----------------|----------------|-----------------|---------------------|
|-----------------|----------------|-----------------|---------------------|
|-----------------|----------------|-----------------|---------------------|
|-0-0-0-1-0-0-0-1-|-0-0-0-1-0------|-0-0-0-1-0-0-0-1-|-0-0-0-1-0-12-(12)\--|


  E E E E E E E E   E E E E E E +Q      E E E E E E E E   E E E E E E +Q
|-----------------|-------------------|-----------------|-------------------|
|-----------------|-------------------|-----------------|-------------------|
|-------1-------1-|-------1---6-(6)\--|-------1-------1-|-------1---6-(6)\--|
|-0-0-0---0-0-0---|-0-0-0---0---------|-0-0-0---0-0-0---|-0-0-0---0---------|


  E E E E E E E E   E E E E E E +Q      E E E E E E E E   E E E E E E +Q
|-----------------|-------------------|-----------------|-------------------||
|-----------------|-------------------|-----------------|-------------------||
|-------1-------1-|-------1---6-(6)\--|-------1-------1-|-------1---6-(6)\--||
|-0-0-0---0-0-0---|-0-0-0---0---------|-0-0-0---0-0-0---|-0-0-0---0---------||


 Breakdown
  q  H.        Wx5          W          H    H
|------------|------------|----------|-----------||
|------------|------------|----------|-----------||
|------------|------------|-1--------|-0---------||
|-0----------|------------|----------|------3----||


  E E E E E E E E   E E E E E E E E   Q  E E E E E E   E Q.   E Q.
|-----------------|-----------------|----------------|---------------|
|-----------------|-----------------|----------------|---------------|
|-----------------|-----------------|-1--1-1-1-1-1-1-|-0-0-----------|
|-5-5-5-5-5-5-5-5-|-5-5-5-5-5-5-5-5-|----------------|--------3-3----|


  E E E E E E E E   E E E E E E E E   Q  E E E E E E   E Q.   E Q.
|-----------------|-----------------|----------------|---------------|
|-----------------|-----------------|----------------|---------------|
|-----------------|-----------------|-1--1-1-1-1-1-1-|-3-3----0-0----|
|-5-5-5-5-5-5-5-5-|-5-5-5-5-5-5-5-5-|----------------|---------------|


  E E E E E E E E   E E E E E E E E   Q  E E E E E E   E Q.   E Q.
|-----------------|-----------------|----------------|---------------|
|-----------------|-----------------|----------------|---------------|
|-----------------|-----------------|-1--1-1-1-1-1-1-|-0-0-----------|
|-5-5-5-5-5-5-5-5-|-5-5-5-5-5-5-5-5-|----------------|--------3-3----|


  E E E E E E E E   E E E E E E E E   W          W
|-----------------|-----------------|----------|------||
|-----------------|-----------------|----------|------||
|-----------------|-----------------|----------|------||
|-5-5-5-5-5-5-5-5-|-5-5-5-5-5-5-5-5-|----------|------||


 Outro
  E E E E E E E E   E E E E E E E E   E E E E E E E E   E E E E H
|-----------------|-----------------|-----------------|--------------|
|-----------------|-----------------|-----------------|--------------|
|-------1-------1-|---------3-5-3-5-|-------1-------1-|--------------|
|-0-0-0---0-0-0---|-0-0-0-0---------|-0-0-0---0-0-0---|-0-0-0-0------|


  E E E E E E E E   E E E E E E E E   E E E E E E E E   E E E E E E E E
|-----------------|-----------------|-----------------|-----------------|
|-----------------|-----------------|-----------------|-----------------|
|-------1-------1-|---------3-5-3-5-|-------1-------1-|---------3-5-3-5-|
|-0-0-0---0-0-0---|-0-0-0-0---------|-0-0-0---0-0-0---|-0-0-0-0---------|


                ~~~
  +W           +W           E E E E q  Q
|------------|------------|---------------*|
|------------|------------|---------------*|
|-(5)--------|-(5)--------|---------------*|
|------------|------------|-0-0-0-0-0-----*|


Duration Legend
---------------
W - whole; H - half; Q - quarter; E - 8th; S - 16th; T - 32nd; X - 64th; a - acciaccatura
+ - note tied to previous; . - note dotted; .. - note double dotted
Uncapitalized letters represent notes that are staccato (1/2 duration)
Irregular groupings are notated above the duration line
Duration letters will always appear directly above the note/fret number it represents the
duration for.  Duration letters with no fret number below them represent rests.  Multi-
bar rests are notated in the form Wxn, where n is the number of bars to rest for.  Low
melody durations appear below the staff

Tablature Legend
----------------
 h   - hammer-on
 p   - pull-off
 b   - bend
 pb  - pre-bend
 r   - bend release (if no number after the r, then release immediately)
 /\  - slide into or out of (from/to "nowhere")
 s   - legato slide
 S   - shift slide
  - natural harmonic
[n]  - artificial harmonic
n(n) - tapped harmonic
 ~   - vibrato
 tr  - trill
 T   - tap
 TP  - trem. picking
 PM  - palm muting
\n/  - tremolo bar dip; n = amount to dip
 \n  - tremolo bar down
 n/  - tremolo bar up
/n\  - tremolo bar inverted dip
 =   - hold bend; also acts as connecting device for hammers/pulls
 <>  - volume swell (louder/softer)
 x   - on rhythm slash represents muted slash
 o   - on rhythm slash represents single note slash

Misc Legend
-----------
 |  - bar
||  - double bar
||o - repeat start
o|| - repeat end
*|  - double bar (ending)
 :  - bar (freetime)
 $  - Segno
 &  - Coda
Tempo markers -  = BPM(8/16=s8/s16), where s8 = swing 8ths, s16 = swing 16ths

            
            
Suggest correction
Creating personal tab
Creating personal tab
You can edit any tab online and save it as your Personal.

You can edit, replace or remove any tab part or add personal notes – all changes will be seen only by you.

Personal tabs can be accessed anytime from any device, even offline.
Learn more »
comments
print report bad tab
1 comment total.
-1 reply
badhabit000 30 May 19, 2007 09:40 AM

in the pre-verse instead of


[-------------- 1 1 3-5-3-5
[---------------000 000 000


it should be
[------------ 5 5 5-6-5-6
[------------ 000 000 000


besides that its perfect 5 stars

guest
You may want to rate the tab now too:
select rating
Wanna post a correction for this tab? Suggest correction