Oops, an error
Loading. Please wait.

Hand Of Blood Bass

version 1
version 1
49,092 views 18 this week
6 commentsread comments
1 2 3 4 5
x 22
add to favorites
launch autoscroll
font size
0
reset
guitar tuner
backing track
0:00
0:00
×
Best way to learn
"Hand Of Blood"
Autoscroll
slow
fast
+/-
esc
set tempo
stop
Author
Difficulty
Tuning
novice
C G C F
INTRO
F|--------------------------------------------------------------|
C|--------------------------------------------------------------|
G|--------------------------------------------------------------|
C|-0---0----0-0-0-0-0-0-0-0-0-0-0-0-0-0-0-----------------------|

F|--------------------------------------------------------------|
C|--------------------------------------------------------------|
G|--------------------------------------------------------------|
C|-0-5-7-0-3-5-0-3-3-23230—(x2)---------------------------------|

F|--------------------------------------------------------------|
C|--------------------------------------------------------------|
G|--------------------------------------------------------------|
C|-3-3-3-3-3-3-3-3-3-3-5-5-5-5-5-7-8-7--------------------------|
PRE VERSE
F|--------------------------------------------------------------|
C|--------------------------------------------------------------|
G|--------------------------------------------------------------|
C|-0---------3---------7----------------------------------------|
VERSE
F|--------------------------------------------------------------|
C|--------------------------------------------------------------|
G|--------------------------------------------------------------|
C|-0-0-000---------0-0-000---3-33—-5-55-------------------------|
PRE CHORUS
F|--------------------------------------------------------------|
C|--------------------------------------------------------------|
G|--------------------------------------------------------------|
C|-0--0--0--0-0-0-0-0-------------------------------------------|
CHORUS
F|--------------------------------------------------------------|
C|--------------------------------------------------------------|
G|--------------------------------------------------------------|
C|-3-0-7-0-000-3-0-7-0-000--3-3-3-3-3-3-3-3-3-3-5-5-5-5-5-7-8-7-|

F|--------------------------------------------------------------|
C|--------------------------------------------------------------|
G|--------------------------------------------------------------|
C|-3-3-3-3-3-3-3-3-3-3-5-5-5-5-5-7-8-7--------------------------|
FIRST PART OF SOLO
F|--------------------------------------------------------------|
C|--------------------------------------------------------------|
G|--------------------------------------------------------------|
C|-0-0-000---------0-0-000---3-33—-5-55-------------------------|
MAIN PART OF SOLO
F|--------------------------------------------------------------|
C|--------------------------------------------------------------|
G|--------------------------------------------------------------|
C|-0000000000000-555555555555-00000000000-555555510101010101010-|
END OF SOLO
F|--------------------------------------------------------------|
C|--------------------------------------------------------------|
G|--------------------------------------------------------------|
C|-0-0-0-0-0-(x4)-00000000000000000-----------------------------|
END
F|--------------------------------------------------------------|
C|--------------------------------------------------------------|
G|--------------------------------------------------------------|
C|-0-0-000------------------------------------------------------|

ORDER

INTRO
PRE VERSE
VERSE x4
PRE CHORUS
CHORUS x2
VERSE x4
PRE CHORUS
CHORUS x2
FIRST PART OF SOLO x2
MAIN PART OF SOLO x3
END OF SOLO
CHORUS x2
END
Suggest correction
comments
print report bad tab
6 comments total. Showing first comments.
0 reply
bass junkiee 62 Jan 14, 2007 09:44 AM

sweet tab
i think in the pre-chorus though, like 2 or 3 seconds before the chorus comes in, the bassist slides from A-4 down to A-0. Great tab as it is now.

0 reply
tlk2k2 10 Mar 23, 2007 02:05 PM

i play this song with my band as a cover and we think it sounds closer to the song if its in c.
and the solo fill thing is write except when u play the opens and 5s alternated its not 1-0-1-0 its a 7-5-3-1-0.
and bass junkie's comment about the slide is correct too.
but yeah other than that u got this tab right.
most ppl play the intro completely wrong.

0 reply
gammey 61 Apr 18, 2007 08:38 AM

yeah i was wrong about the tuning bit i corrected that now

It's been a long time since i listened to B4MV but I think there are some little tweaks you can probably figure out from the tab

guest
You may want to rate the tab now too:
select rating
Wanna post a correction for this tab? Suggest correction