Oops, an error
Loading. Please wait.
We have an official Hand Of Blood tab made by UG professional guitarists. Check out the tab »
×
481 views 6 this week
no commentswrite comment
1 2 3 4 5
x 3
add to favorites
×
Save as Personal and add changes to this tab that will be seen only by you. Learn more ›
×
You can save this tab as Personal to edit and correct it or add notes. All changes will be seen only by you. Learn more »
launch autoscroll
font size
0
reset
how to read this tab
guitar tuner
backing track
0:00
0:00
edit
Autoscroll
slow
fast
+/-
esc
set tempo
stop
About this tab version
This tab is a mix between rhythm and lead guitar. Was this info helpful? Yes No
Thanks to                          Real easy and fun song to play and the solo is very easy.
Josht617 for the post solo      Solo included        Feel free to email warofnations95@gmail.com for anything

  [INTRO]
D|-----------------------------------------------------------------------------------------------------------|
A|-----------------------------------------------------------------------------------------------------------|
F|-------------------------------------------------------------------TRILL-----------------------------------|
C|0-7-8-0-5-7-0-3-5-0-2-3-0-2-5-2-0-7-8-0-5-7-0-3-5-0-2-3-2h5-5p2-2h5-5p2-2h5-5p2-2h5-5p2--------------------|
G|-----------------------------------------------------------------------------------------------------------|
C|-----------------------------------------------------------------------------------------------------------|

D|-----------------------------------------------------------------------------------------------------------|
A|-----------------------------------------------------------------------------------------------------------|
F|-----------------------------------------------------------------------------------------------------------|
C|0-7-8-0-5-7-0-3-5-0-2-3-0-2-5-2-0-7-8-0-5-7-0-3-5-0-2-3----------------------------------------------------|
G|-----------------------------------------------------------------------------------------------------------|
C|-----------------------------------------------------------------------------------------------------------|

D|-----------------------------------------------------------------------------------------------------------|
A|-----------------------------------------------------------------------------------------------------------|
F|-------------------------------------------------------------------------------------------2-3-2~----------|
C|-2-3---------3x3x-2-3-2-3-2--2-3--------3x3x-2-3-2-3-2----3---3---3---3---3/5----5---5-5-2-----------------|
G|-------5-7-5-3x3x-2-3-2-3-2-------5-7-5-3x3x-2-3-2-3-2-0-1-0-1-0-1-0-1-0-1----0-2-0-2-0-0-0----------------|
C|0----0-------3x3x-2-3-2-3-2-0---0-------3x3x-2-3-2-3-2-----------------------------------------------------|
  .    .                      .   .                      . . . . . . . . . .    . . . . . . .
  [CHORUS]
D|-----------------------------------------------------------------------------------------------------------|
A|------------------these are tens-----------------------------------tens again------------------------------|
F|-----------------/1010101010101010---------------------------/1010101010101010-----------------------------|
C|0--3--7-------------------------------------333-777------------------------------------333-777-------------|
G|0--3--7-------------------------------------333-777------------------------------------333-777-------------|
C|0--3--7--0-0-0000------------------0-0-0000-333-777-0-0-0000------------------0-0-0000-333-777-------------|
           . . ....                  . . ....         . . ....                  . . ....
D|-----------------------------------------------------------------------------------------------------------|
A|-----------------------------------------------------------------------------------------------------------|
F|---------/77777777---------------------------/77777777-----------------------------------------------------|
C|----------------------------333-777-----------------------------333-777------------------------------------|
G|----------------------------333-777-----------------------------333-777------------------------------------|
C|0-0-0000-----------0-0-0000-333-777-0-0-0000-----------0-0-0000-333-777------------------------------------|
  . . ....           . . ....         . . ....           . . ....
D|-----------------------------------------------------------------------------------------------------------|
A|-----------------------------------------------------------------------------------------------------------|
F|---------------------------------------------short pause for bass fill-------------------------------------|
C|0-7-8-0-5-7-0-3-5-0-2-3-0-2-5-2-0-7-8-0-5-7-0-3-5-0-2-3--0-7-8-0-5-7-0-3-5-0-2-3-0-2--2h5-5p2-2h5-5p2------|
G|-----------------------------------------------------------------------------------------------------------|
C|-----------------------------------------------------------------------------------------------------------|

D|-----------------------------------------------------------------------------------------------------------|
A|-----------------------------------------------------------------------------------------------------------|
F|-----------------------------------------------------------------------------------------------------------|
C|2h5-5p2-2h5-5p2-0-7-8-0-5-7-0-3-5-0-2-3-----33-00-77-00------33-00-77-00----------3-----3-----3-----3---3/5|
G|--------------------------------------------33-00-77-00------33-00-77-00------0-1---0-1---0-1---0-1--0-1---|
C|----------------------------------------12/-33-00-77-00-0000-33-00-77-00-0000------------------------------|
                                                          ....             .... . .   . .   . .   . .  . .
D|-----------------------------------------------------------------------------------------------------------|
A|-----------------------------------------------------------------------------------------------------------|
F|--------------2-3-2~-----------------------------------------------------------------------2-3-2~----------|
C|----5---5-5-2--------33-00-77-00------33-00-77-00---------3---3---3---3---3/5---5---5-5-2------------------|
G|0-2--0-2-0-0-0-------33-00-77-00------33-00-77-00------0-1-0-1-0-1-0-1-0-1---0-2-0-2-0-0-0-----------------|
C|---------------------33-00-77-00-0000-33-00-77-00-0000-----------------------------------------------------|
  . .  . . . . .                   ....             .... . . . . . . . . . .   . . . . . . .
D|-----------------------------------------------------------------------------------------------------------|
A|-----------------------------------------------------------------------------------------------------------|
F|-----------------------------------------------------------------------------------------------------------|
C|---------/1010101010101010----------333-777----------/1010101010101010----------333-777--------------------|
G|------------------------------------333-777-------------------------------------333-777--------------------|
C|0-0-0000-------------------0-0-0000-333-777-0-0-0000-------------------0-0-0000-333-777--------------------|
  . . ....                   . . ....         . . ....                   . . ....
D|-----------------------------------------------------------------------------------------------------------|
A|-----------------------------------------------------------------------------------------------------------|
F|-----------------------------------------------------------------------------------------------------------|
C|---------/77777777----------333-777-----------/77777777----------333-777-----------------------------------|
G|----------------------------333-777------------------------------333-777-----------------------------------|
C|0-0-0000-----------0-0-0000-333-777--0-0-0000-----------0-0-0000-333-777-----------------------------------|
  . . ....           . . ....          . . ....           . . ....
D|-----------------------------------------------------------------------------------------------------------|
A|-----------------------------------------------------------------------------------------------------------|
F|-----------------------------------------------------------------------------------------------------------|
C|0-7-8-0-5-7-0-3-5-0-2-3-0-2-5-2-0-7-8-0-5-7-0-3-5-0-2-3--0-7-8-0-5-7-0-3-5-0-2-3-0-2-2h5-5p2-2h5-5p2-------|
G|-----------------------------------------------------------------------------------------------------------|
C|-----------------------------------------------------------------------------------------------------------|

D|-----------------------------------------------------------------------------------------------------------|
A|-----------------------------------------------------------------------------------------------------------|
F|-----------------------------------------------------------------------------------------------------------|
C|2h5-5p2-2h5-5p2-0-7-8-0-5-7-0-3-5-0-2-3-----33-00-77-00------33-00-77-00---------3---3---3---3---3/5-------|
G|--------------------------------------------33-00-77-00------33-00-77-00------0-1-0-1-0-1-0-1-0-1----------|
C|----------------------------------------12/-33-00-77-00-0000-33-00-77-00-0000------------------------------|
                                                          ....             .... . . . . . . . . . .
D|-----------------------------------------------------------------------------------------------------------|
A|-----------------------------------------------------------------------------------------------------------|
F|-------------2-3-2~------------------------------------------------------------------------2-3-2~----------|
C|---5---5-5-2--------33-00-77-00------33-00-77------------3---3---3---3----3/5---5---5-5-2------------------|
G|0-2-0-2-0-0-0-------33-00-77-00------33-00-77---------0-1-0-1-0-1-0-1-0-1----0-2-0-2-0-0-0-----------------|
C|--------------------33-00-77-00-0000-33-00-77-00-0000------------------------------------------------------|
  . . . . . . .                   ....             .... . . . . . . . . . .    . . . . . . .

[SOLO]                 Bar the 13th fret with your index finger
D|------------------------17p13-------17p13-17p13-------17p13-17p13-------13b--------------------------------|
A|------------------------------15p13-------------15p13-------------15p13-16b--------------------------------|
F|-----------------------------------------------------------------------------------------------------------|
C|---------3/7-3/10-9----------------------------------------------------------------------------------------|
G|--------------------10~------------------------------------------------------------------------------------|
C|0-0-0000---------------------------------------------------------------------------------------------------|
  . . ....
D|-----------------------------------------------------------------------------------------------------------|
A|-----------------------------------------------------------------------------------------------------------|
F|-----------------10-12/14~------9---10~-9-10-9-12-10-9-10-----9---10~-9-10-9-12-10-9-10--------------------|
C|10-12-10---10-12------------8-8---8-----------------------7-7---7------------------------------------------|
G|---------12------------------------------------------------------------------------------------------------|
C|-----------------------------------------------------------------------------------------------------------|
                              . .   .                       . .   . 
D|-----------------------------------------------------------------------------------------------------------|
A|------------------------------------------13-11-10---------------------------------------------------------|
F|----9---10~-9-10-9-12-10-9-10-----9---10~----------12-10-9-------------------------------------------------|
C|8-8---8-----------------------7-7---7----------------------12-10-------------------------------------------|
G|-----------------------------------------------------------------------------------------------------------|
C|------------------------------------------------------------------12/--------------------------------------|
  . .   .                       . .   .
D|-----------------------------------------------------------------------------------------------------------|
A|-----------------------------------------------------------------------------------------------------------|
F|--------------------------------------------------------------------------------------5-3-2----------------|
C|----2---3~-2-3-2-5-3-2-3-----2---3~-2-3-2-5-3-2-3-----2---3~-2-3-2-5-3-2-3-----2---3~-------5-3-2----------|
G|1-1---1------------------0-0---0------------------1-1---1------------------0-0---0----------------5-3------|
C|-----------------------------------------------------------------------------------------------------------|
  . .   .                  . .   .                  . .   .                  . .   .
D|-----------------------------------------------------------------------------------------------------------|
A|-----------------------------------------------------------------------------------------------------------|
F|--------------------------------------------------------------------------------------5-3-2----------------|
C|----2---3~-2-3-2-5-3-2-3-----2---3~-2-3-2-5-3-2-3-----2---3~-2-3-2-5-3-2-3-----2---3~-------5-3-2----------|
G|1-1---1------------------0-0---0------------------1-1---1------------------0-0---0----------------5-3------|
C|-----------------------------------------------------------------------------------------------------------|
  . .   .                  . .   .                  . .   .                  . .   .
  [POST-SOLO]
D|------------------------------------------------------10p9--------10p9-------------------------------------|
A|10p9---12p9---10p9---12p9---10p9-10p9--10p9---12p9-----------10p9------10p9-10p9---12p9---10p9----12p9-----|
F|-----9------9------9------9-----------------9-------9------9---------------------9------9-------9----------|
C|-----------------------------------------------------------------------------------------------------------|
G|-----------------------------------------------------------------------------------------------------------|
C|-----------------------------------------------------------------------------------------------------------|
       .      .      .      .                 .       .      .                     .      .       .
D|-----------------------------------------10p9--------------------------------------------------------------|
A|--10p9-10p9--10p9---12p9---10p9---12p9--------10p9---------------------------------------------------------|
F|9-----------------9------9------9------9-------------------------------------------------------------------|
C|-----------------------------------------------------------------------------------------------------------|
G|-----------------------------------------------------------------------------------------------------------|
C|-----------------------------------------------------------------------------------------------------------|
  .                 .      .      .      . 
D|-----------------------------------------------------------------------------------------------------------|
A|-----------------------------------------------------------------------------------------------------------|
F|-----------------------------------------------------------------------------------------------------------|
C|0-7-8-0-5-7-0-3-5-0-2-3-33-00-77-00------33-00-77-00----------3-----3-----3-----3-----3/5------------------|
G|------------------------33-00-77-00------33-00-77-00------0-1---0-1---0-1---0-1---0-1----------------------|
C|------------------------33-00-77-00-0000-33-00-77-00-0000--------------------------------------------------|
                                      ....             .... . .   . .   . .   . .   . .
D|-----------------------------------------------------------------------------------------------------------|
A|-----------------------------------------------------------------------------------------------------------|
F|----------------------2-3-2~-------------------------------------------------------------------------------|
C|----5-----5---5---2----------33-00-77-00------33-00-77-00----------3-----3-----3-----3-----3/5-------------|
G|0-2---0-2---0---0---0--------33-00-77-00------33-00-77-00------0-1---0-1---0-1---0-1---0-1-----------------|
C|-----------------------------33-00-77-00-0000-33-00-77-00-0000---------------------------------------------|
  . .   . .   .   .   .                    ....             .... . .   . .   . .   . .   . .
[END]
D|-----------------------------------------------------------------------------------------------------------|
A|-----------------------------------------------------------------------------------------------------------|
F|----------------------2-3-2~-------------------------------------------------------------------------------|
C|----5-----5---5---2----------------------------------------------------------------------------------------|
G|0-2---0-2---0---0---0--------------------------------------------------------------------------------------|
C|-----------------------------0-0-0000----------------------------------------------------------------------|
  . .   . .   .   .   .        . . ...

That's it, hope you enjoyed, hope it was helpful.Feel free to leave corrections.

            
            
Suggest correction
Creating personal tab
Creating personal tab
You can edit any tab online and save it as your Personal.

You can edit, replace or remove any tab part or add personal notes – all changes will be seen only by you.

Personal tabs can be accessed anytime from any device, even offline.
Learn more »
Give kudos to tab author, rate the tab!
1 2 3 4 5
comments
print report bad tab
guest
You may want to rate the tab now too:
select rating
Wanna post a correction for this tab? Suggest correction