Oops, an error
Loading. Please wait.
We have an official Hand Of Blood tab made by UG professional guitarists. Check out the tab »
×
4,623 views 3 this week
5 commentsread comments
1 2 3 4 5
x 7
add to favorites
×
Save as Personal and add changes to this tab that will be seen only by you. Learn more ›
×
You can save this tab as Personal to edit and correct it or add notes. All changes will be seen only by you. Learn more »
launch autoscroll
font size
0
reset
guitar tuner
backing track
0:00
0:00
edit
Autoscroll
slow
fast
+/-
esc
set tempo
stop
INTRO
G|--------------------------------------------------------------|
D|--------------------------------------------------------------|
A|--------------------------------------------------------------|
C|-0---0----0-0-0-0-0-0-0-0-0-0-0-0-0-0-0-----------------------|

G|--------------------------------------------------------------|
D|--------------------------------------------------------------|
A|--------------------------------------------------------------|
C|-0-5-7-0-3-5-0-3-3-23230-(x2)---------------------------------|

G|--------------------------------------------------------------|
D|--------------------------------------------------------------|
A|--------------------------------------------------------------|
C|-3-3-3-3-3-3-3-3-3-3-5-5-5-5-5-7-8-7--------------------------|

PRE VERSE
G|--------------------------------------------------------------|
D|--------------------------------------------------------------|
A|--------------------------------------------------------------|
C|-0---------3---------7----------------------------------------|

VERSE (x4)
G|--------------------------------------------------------------|
D|--------------------------------------------------------------|
A|--------------------------------------------------------------|
C|-0-0-000---------0-0-000---3-33—-5-55-------------------------|

PRE CHORUS
G|--------------------------------------------------------------|
D|--------------------------------------------------------------|
A|--------------------------------------------------------------|
C|-0--0--0--0-0-0-0-0-------------------------------------------|

CHORUS (x2)
G|--------------------------------------------------------------|
D|--------------------------------------------------------------|
A|--------------------------------------------------------------|
C|-3-0-7-0-000-3-0-7-0-000--3-3-3-3-3-3-3-3-3-3-5-5-5-5-5-7-8-7-|

G|--------------------------------------------------------------|
D|--------------------------------------------------------------|
A|--------------------------------------------------------------|
C|-3-3-3-3-3-3-3-3-3-3-5-5-5-5-5-7-8-7--------------------------|

VERSE (x4)
G|--------------------------------------------------------------|
D|--------------------------------------------------------------|
A|--------------------------------------------------------------|
C|-0-0-000---------0-0-000---3-33—-5-55-------------------------|

PRE CHORUS
G|--------------------------------------------------------------|
D|--------------------------------------------------------------|
A|--------------------------------------------------------------|
C|-0--0--0--0-0-0-0-0-------------------------------------------|

CHORUS (x2)
G|--------------------------------------------------------------|
D|--------------------------------------------------------------|
A|--------------------------------------------------------------|
C|-3-0-7-0-000-3-0-7-0-000--3-3-3-3-3-3-3-3-3-3-5-5-5-5-5-7-8-7-|

FIRST PART OF SOLO (x2)
G|--------------------------------------------------------------|
D|--------------------------------------------------------------|
A|--------------------------------------------------------------|
C|-0-0-000---------0-0-000---3-33—-5-55-------------------------|

MAIN PART OF SOLO (x3)
G|--------------------------------------------------------------|
D|--------------------------------------------------------------|
A|--------------------------------------------------------------|
C|-0000000000000-555555555555-00000000000-555555510101010101010-|

END OF SOLO
G|--------------------------------------------------------------|
D|--------------------------------------------------------------|
A|--------------------------------------------------------------|
C|-0-0-0-0-0-(x4)-00000000000000000-----------------------------|

CHORUS (x2)
G|--------------------------------------------------------------|
D|--------------------------------------------------------------|
A|--------------------------------------------------------------|
C|-3-0-7-0-000-3-0-7-0-000--3-3-3-3-3-3-3-3-3-3-5-5-5-5-5-7-8-7-|

G|--------------------------------------------------------------|
D|--------------------------------------------------------------|
A|--------------------------------------------------------------|
C|-3-3-3-3-3-3-3-3-3-3-5-5-5-5-5-7-8-7--------------------------|

END
G|--------------------------------------------------------------|
D|--------------------------------------------------------------|
A|--------------------------------------------------------------|
C|-0-0-000------------------------------------------------------|

            
            
Suggest correction
Creating personal tab
Creating personal tab
You can edit any tab online and save it as your Personal.

You can edit, replace or remove any tab part or add personal notes – all changes will be seen only by you.

Personal tabs can be accessed anytime from any device, even offline.
Learn more »
comments
print report bad tab
5 comments total. Showing first comments.
0 reply
squishmonster 10 Aug 05, 2006 08:33 AM

erm...
those 7 people who voted 5 star for version one...
you're wrong!
its tabbed right
but *listen* to the music...
oops! its C not D.
well done Unregistered...
you have fully working ears!

0 reply
George Mcmann 51 Sep 11, 2006 07:51 AM

first of all, he HASNT got the tuning right, it goes 'C G C F', NOT 'C A D G'. second this is just a copy of version 1!!! they are exactly the same!!!

0 reply
Satan Man 1,286 Oct 30, 2006 07:52 AM

This is true Mr George

guest
Wanna post a correction for this tab? Suggest correction