Oops, an error
Loading. Please wait.
We have an official Hand Of Blood tab made by UG professional guitarists. Check out the tab »
×
4,160 views 18 this week
3 commentsread comments
1 2 3 4 5
x 5
add to favorites
×
Save as Personal and add changes to this tab that will be seen only by you. Learn more ›
×
You can save this tab as Personal to edit and correct it or add notes. All changes will be seen only by you. Learn more »
launch autoscroll
font size
0
reset
how to read this tab
guitar tuner
backing track
0:00
0:00
edit
Autoscroll
slow
fast
+/-
esc
set tempo
stop
Song:		Hand of Blood
Artist/Band:	Bullet For My Valentine
Album:		Bullet For My Valentine EP (2004)
			Hand of Blood (2005)
Tuning:		Drop C (C G C F A D)
Difficulty:	Advanced

Tab contributor:	poetichu$tla
e-mail:		miami-records@hotmail.com


I tried to make the song as accurate as possible. There may be a few variations as 
to how you may do it.

Enjoy!!


Intro
 |Guitar One
 |		   +     -    +    -    +    -    +    -
D||--------|----------------------------------------||
A||--------|----------------------------------------||
F||--------|----------------------------------------||
C||--------|-0--7--8-0--5--7-0--3--5-0-2--3-0-2--3-2||
G||--------|----------------------------------------||
C||--------|----------------------------------------||
 |                                                  ||
                                                    ||
 |Guitar Two                                        ||
D||--------|----------------------------------------||
A||--------|----------------------------------------||
F||--------|----------------------------------------||
C||--------|-0-14-15-0-12-14-0-10-12-0-8-10-0-7-10-7||
G||--------|----------------------------------------||
C||--------|----------------------------------------||



 |Guitar One
 |  +     -    +    -    +    -    +       -
D||------------------------------------------------||
A||------------------------------------------------||
F||------------------------------------------------||
C||-0--7--8-0--5--7-0--3--5-0-2--3-2h-3p2h-3p2h-3p2||
G||------------------------------------------------||
C||------------------------------------------------||
 |                                                 ||
 |                                                 ||
 |Guitar Two                                       ||
D||------------------------------------------------||
A||------------------------------------------------||
F||------------------------------------------------||
C||-0-14-15-0-12-14-0-10-12-0-8-10-7h10p7h10p7h10p7||
G||------------------------------------------------||
C||------------------------------------------------||



 |Guitar One
 |  +     -    +    -     +    -    +    -
D||-------------------------------------------||
A||-------------------------------------------||
F||-------------------------------------------||
C||-0--7--8-0--5--7-0--3--5-0--2--3-0--2--3--2||
G||-------------------------------------------||
C||-------------------------------------------||
 |                                            ||
 |                                            ||
 |Guitar Two                                  ||
D||-------------------------------------------||
A||-------------------------------------------||
F||-------------------------------------------||
C||-0-14-15-0-12-14-0-15-17-0-17-19-0-15-17-15||
G||-------------------------------------------||
C||-------------------------------------------||



 |Guitar One
 |  +     -    +    -     +   -    +   -
D||---------------------------------------||
A||---------------------------------------||
F||---------------------------------------||
C||-0--7--8-0--5--7-0--3--5-0-2--3--------||
G||---------------------------------------||
C||---------------------------------------||
 |                                        ||
 |                                        ||
 |Guitar Two                              ||
D||---------------------------------------||
A||---------------------------------------||
F||---------------------------------------||
C||-0-14-15-0-12-14-0-10-12-0-8-10--------||
G||---------------------------------------||
C||---------------------------------------||



Post-Intro
 |Guitar One
 |  +   -   +   -   +   -   +   -
D||--------------------------------||
A||--------------------------------||
F||--------------------------------||
C||---------------2---2---2-2h3p2h3||
G||-0-3-5-0-------2---2---2-2h3p2h3||
C||---------3-5-3-2---2---2-2h3p2h3||
 |                                 ||
 |                                 ||
 |Guitar Two                       ||
D||--------------------------------||
A||--------------------------------||
F||--------------------------------||
C||---2-3---------2---2---2-2h3p2h3||
G||-0-----0-3-5-3-2---2---2-2h3p2h3||
C||---------------2---2---2-2h3p2h3||



 |Guitar One
 |  +   -   +   -   +   -   +   -
D||--------------------------------||
A||--------------------------------||
F||--------------------------------||
C||---------------2---2---2-2h3p2h3||
G||-0-3-5-0-------2---2---2-2h3p2h3||
C||---------3-5-3-2---2---2-2h3p2h3||
 |                                 ||
 |                                 ||
 |Guitar Two                       ||
D||--------------------------------||
A||--------------------------------||
F||--------------------------------||
C||---2-3---------2---2---2-2h3p2h3||
G||-0-----0-3-5-3-2---2---2-2h3p2h3||
C||---------------2---2---2-2h3p2h3||



 |Guitar One
 |  +    -   +    -    +   -    +    -
D||-------------------------------------||
A||-------------------------------------||
F||-------------------------------------||
C||------3------3------3------3------3--||
G||-0-1----0-1----0-1----0-1----0-1-----||
C||-------------------------------------||
 |                                      ||
 |                                      ||
 |Guitar Two                            ||
D||-------------------------------------||
A||-------------------------------------||
F||-------------------------------------||
C||-----10-----10-----10-----10-----10--||
G||-0-8----0-8----0-8----0-8----0-8-----||
C||-------------------------------------||


 |Guitar One
 |  +     -    +     -    +     -     +     -
D||---------------------------------------------||
A||---------------------------------------------||
F||---------------------------------------------||
C||-------5-------5-----5-------7-----8-----7---||
G||-0--3----0--3-----3----0--5-----5-----5----5-||
C||---------------------------------------------||
 |                                              ||
 |                                              ||
 |Guitar Two                                    ||
D||---------------------------------------------||
A||---------------------------------------------||
F||---------------------------------------------||
C||------12------12----12------14----15----14---||
G||-0-10----0-10----10----0-12----12----12----12||
C||---------------------------------------------||


 |Guitar One
 | +-+-+-+-|+-+-+-+-|+-+-+-+-
D||--------|--------|--------||
A||--------|--------|--------||
F||--------|--------|--------||
C||0-------|3-------|7-------||
G||0-------|3-------|7-------||
C||0-------|3-------|7-------||
 |                           ||
 |                           ||
 |Guitar Two                 ||
D||--------|--------|--------||
A||--------|--------|--------||
F||--------|--------|--------||
C||0-------|3-------|7-------||
G||0-------|3-------|7-------||
C||0-------|3-------|7-------||



Verse 1 + 2
 |Guitar One
 |  +   -   +   -    +      -     +      -
D||------------------------------------------||
A||------------------------------------------||
F||--------------10---10--10--10---10--10--10||
C||-0---0---0000-----------------------------||
G||-0---0---0000-----------------------------||
C||-0---0---0000-----------------------------||
 |                                           ||
 |                                           ||
 |Guitar Two                                 ||
D||------------------------------------------||
A||------------------------------------------||
F||------------------------------------------||
C||------------------------------------------||
G||------------------------------------------||
C||------------------------------------------||



 |Guitar One
 |  +   -   +   -   +   -   +   -
D||--------------------------------||
A||--------------------------------||
F||--------------------------------||
C||-0---0---0000--3--3-3-7---7-7-7-||
G||-0---0---0000--3--3-3-7---7-7-7-||
C||-0---0---0000--3--3-3-7---7-7-7-||
 |                                 ||
 |                                 ||
 |Guitar Two                       ||
D||--------------------------------||
A||--------------------------------||
F||--------------------------------||
C||--------------------------------||
G||--------------------------------||
C||--------------------------------||



 |Guitar One
 |  +   -   +   -    +      -     +      -
D||------------------------------------------||
A||------------------------------------------||
F||--------------10---10--10--10---10--10--10||
C||-0---0---0000-----------------------------||
G||-0---0---0000-----------------------------||
C||-0---0---0000-----------------------------||
 |                                           ||
 |                                           ||
 |Guitar Two                                 ||
D||------------------------------------------||
A||------------------------------------------||
F||------------------------------------------||
C||------------------------------------------||
G||------------------------------------------||
C||------------------------------------------||




 |Guitar One
 |  +   -   +   -   +   -   +   -
D||--------------------------------||
A||--------------------------------||
F||--------------------------------||
C||-0---0---0000--3--3-3-7---7-7-7-||
G||-0---0---0000--3--3-3-7---7-7-7-||
C||-0---0---0000--3--3-3-7---7-7-7-||
 |                                 ||
 |                                 ||
 |Guitar Two                       ||
D||--------------------------------||
A||--------------------------------||
F||--------------------------------||
C||--------------------------------||
G||--------------------------------||
C||--------------------------------||





 |Guitar One
 |  +   -   +   -    +      -     +      -
D||------------------------------------------||
A||------------------------------------------||
F||--------------10---10--10--10---10--10--10||
C||-0---0---0000-----------------------------||
G||-0---0---0000-----------------------------||
C||-0---0---0000-----------------------------||
 |                                           ||
 |                                           ||
 |Guitar Two                                 ||
D||------------------------------------------||
A||---------------8----8---8---8----8---8---8||
F||------------------------------------------||
C||-0---0---0000-----------------------------||
G||-0---0---0000-----------------------------||
C||-0---0---0000-----------------------------||





 |Guitar One
 |  +   -   +   -   +   -   +   -
D||--------------------------------||
A||--------------------------------||
F||--------------------------------||
C||-0---0---0000--3--3-3-7---7-7-7-||
G||-0---0---0000--3--3-3-7---7-7-7-||
C||-0---0---0000--3--3-3-7---7-7-7-||
 |                                 ||
 |                                 ||
 |Guitar Two                       ||
D||--------------------------------||
A||--------------------------------||
F||--------------------------------||
C||-0---0---0000--3--3-3-7---7-7-7-||
G||-0---0---0000--3--3-3-7---7-7-7-||
C||-0---0---0000--3--3-3-7---7-7-7-||


 |Guitar One
 |  +   -   +   -    +      -     +      -
D||------------------------------------------||
A||------------------------------------------||
F||--------------10---10--10--10---10--10--10||
C||-0---0---0000-----------------------------||
G||-0---0---0000-----------------------------||
C||-0---0---0000-----------------------------||
 |                                           ||
 |                                           ||
 |Guitar Two                                 ||
D||------------------------------------------||
A||---------------8----8---8---8----8---8---8||
F||------------------------------------------||
C||-0---0---0000-----------------------------||
G||-0---0---0000-----------------------------||
C||-0---0---0000-----------------------------||





 |Guitar One
 |  +   -   +   -   +   -   +   -
D||--------------------------------||
A||--------------------------------||
F||--------------------------------||
C||-0---0---0000--3--3-3-7---7-7-7-||
G||-0---0---0000--3--3-3-7---7-7-7-||
C||-0---0---0000--3--3-3-7---7-7-7-||
 |                                 ||
 |                                 ||
 |Guitar Two                       ||
D||--------------------------------||
A||--------------------------------||
F||--------------------------------||
C||-0---0---0000--3--3-3-7---7-7-7-||
G||-0---0---0000--3--3-3-7---7-7-7-||
C||-0---0---0000--3--3-3-7---7-7-7-||


Pre-Chorus
 |Guitar One
 |  +     -    +    -    +    -    +    -
D||----------------------------------------||
A||----------------------------------------||
F||----------------------------------------||
C||-0--7--8-0--5--7-0--3--5-0-2--3-0-2--3-2||
G||----------------------------------------||
C||----------------------------------------||
 |                                         ||
 |                                         ||
 |Guitar Two                               ||
D||----------------------------------------||
A||----------------------------------------||
F||----------------------------------------||
C||-0-14-15-0-12-14-0-10-12-0-8-10-0-7-10-7||
G||----------------------------------------||
C||----------------------------------------||



 |Guitar One
 |  +     -    +    -    +    -    +    -
D||----------------------------------------||
A||----------------------------------------||
F||----------------------------------------||
C||-0--7--8-0--5--7-0--3--5-0-2--3-00000000||
G||--------------------------------00000000||
C||--------------------------------00000000||
 |                                         ||
 |                                         ||
 |Guitar Two                               ||
D||----------------------------------------||
A||----------------------------------------||
F||----------------------------------------||
C||-0-14-15-0-12-14-0-10-12-0-8-10-00000000||
G||--------------------------------00000000||
C||--------------------------------00000000||



 |Guitar One
 |  +     -    +    -    +    -    +       -
D||------------------------------------------------||
A||------------------------------------------------||
F||------------------------------------------------||
C||-0--7--8-0--5--7-0--3--5-0-2--3-2h-3p2h-3p2h-3p2||
G||------------------------------------------------||
C||------------------------------------------------||
 |                                                 ||
 |                                                 ||
 |Guitar Two                                       ||
D||------------------------------------------------||
A||------------------------------------------------||
F||------------------------------------------------||
C||-0-14-15-0-12-14-0-10-12-0-8-10-7h10p7h10p7h10p7||
G||------------------------------------------------||
C||------------------------------------------------||



 |Guitar One
 |  +     -    +    -     +   -    +   -
D||---------------------------------------||
A||---------------------------------------||
F||---------------------------------------||
C||-0--7--8-0--5--7-0--3--5-0-2--3--\\\\\\||
G||---------------------------------\\\\\\||
C||---------------------------------\\\\\\||
 |                                        ||
 |                                        ||
 |Guitar Two                              ||
D||---------------------------------------||
A||---------------------------------------||
F||---------------------------------------||
C||-0-14-15-0-12-14-0-10-12-0-8-10--\\\\\\||
G||---------------------------------\\\\\\||
C||---------------------------------\\\\\\||


Chorus (Play twice)
 |Guitar One
 |  +   -   +   -   +   -   +   -
D||--------------------------------||
A||--------------------------------||
F||--------------------------------||
C||-3-3---0-0---7-7---0-0---0-0-0-0||
G||-3-3---0-0---7-7---0-0---0-0-0-0||
C||-3-3---0-0---7-7---0-0---0-0-0-0||
 |                                 ||
 |							||
 |Guitar Two					||
D||--------------------------------||
A||--------------------------------||
F||--------------------------------||
C||-3-3---0-0---7-7---0-0---0-0-0-0||
G||-3-3---0-0---7-7---0-0---0-0-0-0||
C||-3-3---0-0---7-7---0-0---0-0-0-0||



 |Guitar One
 |  +   -   +   -   +   -   +   -
D||--------------------------------||
A||--------------------------------||
F||--------------------------------||
C||-3-3---0-0---7-7---0-0---0-0-0-0||
G||-3-3---0-0---7-7---0-0---0-0-0-0||
C||-3-3---0-0---7-7---0-0---0-0-0-0||
 |							||
 |							||
 |Guitar Two					||
D||--------------------------------||
A||--------------------------------||
F||--------------------------------||
C||-3-3---0-0---7-7---0-0---0-0-0-0||
G||-3-3---0-0---7-7---0-0---0-0-0-0||
C||-3-3---0-0---7-7---0-0---0-0-0-0||



 |Guitar One
 |  +    -   +    -    +   -    +    -
D||-------------------------------------||
A||-------------------------------------||
F||-------------------------------------||
C||------3------3------3------3------3--||
G||-0-1----0-1----0-1----0-1----0-1-----||
C||-------------------------------------||
 |                                      ||
 |                                      ||
 |Guitar Two                            ||
D||-------------------------------------||
A||-------------------------------------||
F||-------------------------------------||
C||-----10-----10-----10-----10-----10--||
G||-0-8----0-8----0-8----0-8----0-8-----||
C||-------------------------------------||


 |Guitar One
 |  +     -    +     -    +     -     +     -
D||---------------------------------------------||
A||---------------------------------------------||
F||---------------------------------------------||
C||-------5-------5-----5-------7-----8-----7---||
G||-0--3----0--3-----3----0--5-----5-----5----5-||
C||---------------------------------------------||
 |                                              ||
 |                                              ||
 |Guitar Two                                    ||
D||---------------------------------------------||
A||---------------------------------------------||
F||---------------------------------------------||
C||------12------12----12------14----15----14---||
G||-0-10----0-10----10----0-12----12----12----12||
C||---------------------------------------------||


Solo (divided)
GUITAR ONE ONLY
    +   -   +   -   +   -   +   -
D||--------------------------------||
A||--------------------------------||
F||--------------------------------||
C||-0---0---0000-------------------||
G||-0---0---0000-------------------||
C||-0---0---0000-------------------||



|  +   -   +   -   +   -   +   -
D||--------------------------------||
A||--------------------------------||
F||--------------------------------||
C||-0---0---0000--3--3-3-7---7-7-7-||
G||-0---0---0000--3--3-3-7---7-7-7-||
C||-0---0---0000--3--3-3-7---7-7-7-||


|  +   -   +   -   +   -   +   -
D||--------------------------------||
A||--------------------------------||
F||--------------------------------||
C||-0---0---0000-------------------||
G||-0---0---0000-------------------||
C||-0---0---0000-------------------||



|  +   -   +   -   +   -   +   -
D||--------------------------------||
A||--------------------------------||
F||--------------------------------||
C||-0---0---0000--3--3-3-7---7-7-7-||
G||-0---0---0000--3--3-3-7---7-7-7-||
C||-0---0---0000--3--3-3-7---7-7-7-||


GUITAR TWO ONLY (rhythm hard to decipher, but I’m sure it’s goes like this)


 |  +   -   +   -   +   -   +   -
D||--------------------------------||
A||--------------------------------||
F||----------------7~--------------||
C||--------------------------------||
G||--------------------------------||
C||--------------------------------||


 |  +   -   +   -    +   -   +   -
D||-5-------------------------------||
A||-6-------8-----------------------||
F||---------9--------9~~------------||
C||-----------------10~~------------||
G||---------------------------------||
C||---------------------------------||


 |   +           -           +           -        
D||-17p13-------17p13-17p13-------17p13-17p13-------||
A||-------15p13-------------15p13-------------15p13-||
F||-------------------------------------------------||
C||-------------------------------------------------||
G||-------------------------------------------------||
C||-------------------------------------------------||



 |   +-+-+-+-
D||----------||
A||-17b------||
F||----------||
C||----------||
G||----------||
C||----------||



 |   +     -     +     -     +   -   +   -
D||----------------------------------------||
A||----------------------------------------||
F||----------12----------12p14~------------||
C||----12-15----15-12-15-------------------||
G||-15-------------------------------------||
C||----------------------------------------||




Bridge
 |Guitar One
 |  +   -    +   -   +    -    +    -
D||-------------------------------------||
A||-------------------------------------||
F||-------------------------------------||
C||-8-8-8-8--8--------------------------||
G||-8-8-8-8--8--------------------------||
C||-8-8-8-8--8--------------------------||
 |                                      ||
 |                                      ||
 |Guitar Two                            ||
D||-------------------------------------||
A||-------------------------------------||
F||-----9---10---------9-10-9-12-10-9-10||
C||-8-8---8-----------------------------||
G||-------------------------------------||
C||-------------------------------------||



 |Guitar One
 |   +     -     +   -   +    -    +    -
D||-----------------------------------------||
A||-----------------------------------------||
F||-----------------------------------------||
C||-12-12-12-12-12--------------------------||
G||-12-12-12-12-12--------------------------||
C||-12-12-12-12-12--------------------------||
 |                                          ||
 |                                          ||
 |Guitar Two                                ||
D||-----------------------------------------||
A||-----------------------------------------||
F||--------9----10---------9-10-9-12-10-9-10||
C||--7--7-----7-----------------------------||
G||-----------------------------------------||
C||-----------------------------------------||


 
 |Guitar One
 |  +   -    +   -   +    -    +    -
D||-------------------------------------||
A||-------------------------------------||
F||-------------------------------------||
C||-8-8-8-8--8--------------------------||
G||-8-8-8-8--8--------------------------||
C||-8-8-8-8--8--------------------------||
 |                                      ||
 |                                      ||
 |Guitar Two                            ||
D||-------------------------------------||
A||-------------------------------------||
F||-----9---10---------9-10-9-12-10-9-10||
C||-8-8---8-----------------------------||
G||-------------------------------------||
C||-------------------------------------||



 |Guitar One
 |   +     -     +   -    +     -     +    -
D||--------------------------------------------||
A||--------------------------------------------||
F||--------------------------------------------||
C||-12-12-12-12-12-----------------------------||
G||-12-12-12-12-12-----------------------------||
C||-12-12-12-12-12-----------------------------||
 |                                             ||
 |                                             ||
 |Guitar Two                                   ||
D||--------------------------------------------||
A||----------------------13-11-10--------------||
F||--------9----10----------------12-10-9------||
C||--7--7-----7---------------------------12-10||
G||--------------------------------------------||
C||--------------------------------------------||





 |Guitar One
 |  +   -    +   -   +    -    +    -
D||-------------------------------------||
A||-------------------------------------||
F||-----9---10---------9-10-9-12-10-9-10||
C||-8-8---8-----------------------------||
G||-------------------------------------||
C||-------------------------------------||
 |                                      ||
 |                                      ||
 |Guitar Two                            ||
D||-------------------------------------||
A||-------------------------------------||
F||-----2----3---------2--3-2--5--3-2--3||
C||-1-1---1-----------------------------||
G||-------------------------------------||
C||-------------------------------------||



 |Guitar One
 |  +   -    +   -   +    -    +    -
D||-------------------------------------||
A||-------------------------------------||
F||-----9---10---------9-10-9-12-10-9-10||
C||-7-7---7-----------------------------||
G||-------------------------------------||
C||-------------------------------------||
 |                                      ||
 |                                      ||
 |Guitar Two                            ||
D||-------------------------------------||
A||-------------------------------------||
F||-----2----3---------2--3-2--5--3-2--3||
C||-0-0---0-----------------------------||
G||-------------------------------------||
C||-------------------------------------||



 |Guitar One
 |  +   -    +   -   +    -    +    -
D||-------------------------------------||
A||-------------------------------------||
F||-----9---10---------9-10-9-12-10-9-10||
C||-8-8---8-----------------------------||
G||-------------------------------------||
C||-------------------------------------||
 |                                      ||
 |                                      ||
 |Guitar Two                            ||
D||-------------------------------------||
A||-------------------------------------||
F||-----2----3---------2--3-2--5--3-2--3||
C||-1-1---1-----------------------------||
G||-------------------------------------||
C||-------------------------------------||



 |Guitar One
 |  +   -    +   -    +     -     +    -
D||----------------------------------------||
A||------------------13-11-10--------------||
F||-----9---10----------------12-10-9------||
C||-7-7---7---------------------------12-10||
G||----------------------------------------||
C||----------------------------------------||
 |                                         ||
 |                                         ||
 |Guitar Two                               ||
D||----------------------------------------||
A||-------------------5--3--2--------------||
F||-----2----3-----------------5--3-2------||
C||-0-0---0----------------------------5--3||
G||----------------------------------------||
C||----------------------------------------||



 |Guitar One
 |  +   -    +   -   +    -    +    -
D||-------------------------------------||
A||-------------------------------------||
F||-----9---10---------9-10-9-12-10-9-10||
C||-8-8---8-----------------------------||
G||-------------------------------------||
C||-------------------------------------||
 |                                      ||
 |                                      ||
 |Guitar Two                            ||
D||-------------------------------------||
A||----------------------------8--6-5--6||
F||-----5----7---------5--7-5-----------||
C||-0-0---0-----------------------------||
G||-------------------------------------||
C||-------------------------------------||



 |Guitar One
 |  +   -    +   -   +    -    +    -
D||-------------------------------------||
A||-------------------------------------||
F||-----9---10---------9-10-9-12-10-9-10||
C||-7-7---7-----------------------------||
G||-------------------------------------||
C||-------------------------------------||
 |                                      ||
 |                                      ||
 |Guitar Two                            ||
D||-------------------------------------||
A||----------------------------8--6-5--6||
F||-----5----7---------5--7-5-----------||
C||-0-0---0-----------------------------||
G||-------------------------------------||
C||-------------------------------------||



 |Guitar One
 |  +   -    +   -   +    -    +    -
D||-------------------------------------||
A||-------------------------------------||
F||-----9---10---------9-10-9-12-10-9-10||
C||-8-8---8-----------------------------||
G||-------------------------------------||
C||-------------------------------------||
 |                                      ||
 |                                      ||
 |Guitar Two                            ||
D||-------------------------------------||
A||----------------------------8--6-5--6||
F||-----5----7---------5--7-5-----------||
C||-0-0---0-----------------------------||
G||-------------------------------------||
C||-------------------------------------||



 |Guitar One
 |  +   -    +   -    +     -     +    -
D||----------------------------------------||
A||------------------13-11-10--------------||
F||-----9---10----------------12-10-9------||
C||-7-7---7---------------------------12-10||
G||----------------------------------------||
C||----------------------------------------||
 |                                         ||
 |                                         ||
 |Guitar Two                               ||
D||----------------------------------------||
A||-------------------8--6--5--------------||
F||-----5----7-----------------7--5--------||
C||-0-0---0-------------------------8--7--5||
G||----------------------------------------||
C||----------------------------------------||



 |Guitar One
 |   +   -    +    -   +    -    +    -
D||--------------------------------------||
A||--------------------------------------||
F||--------------------------------------||
C||--8-8-8--8-8--------------------------||
G||--8-8-8--8-8--------------------------||
C||--8-8-8--8-8--------------------------||
 |                                       ||
 |                                       ||
 |Guitar Two                             ||
D||--------------------------------------||
A||--------------------------------------||
F||-10p9---12p9---10p9---12p9---10p9-10p9||
C||--------------------------------------||
G||--------------------------------------||
C||--------------------------------------||



 |Guitar One
 |   +     -     +   -   +    -    +    -
D||----------------------------------------||
A||----------------------------------------||
F||----------------------------------------||
C||-12-12-12-12-12-------------------------||
G||-12-12-12-12-12-------------------------||
C||-12-12-12-12-12-------------------------||
 |                                         ||
 |                                         ||
 |Guitar Two                               ||
D||----------------------------------------||
A||------------------------13--------------||
F||-10p09----12p09--10p9------9---10p9-10p9||
C||----------------------------------------||
G||----------------------------------------||
C||----------------------------------------||


 
 |Guitar One
 |   +   -    +    -   +    -    +    -
D||--------------------------------------||
A||--------------------------------------||
F||--------------------------------------||
C||--8-8-8--8-8--------------------------||
G||--8-8-8--8-8--------------------------||
C||--8-8-8--8-8--------------------------||
 |                                       ||
 |                                       ||
 |Guitar Two                             ||
D||--------------------------------------||
A||--------------------------------------||
F||-10p9---12p9---10p9---12p9---10p9-10p9||
C||--------------------------------------||
G||--------------------------------------||
C||--------------------------------------||



 |Guitar One
 |   +     -     +     -     +     -     +     -
D||------------------------------------------------||
A||------------------------------------------------||
F||------------------------------------------------||
C||-12-12-12-12-12-12-12-12-12-12-12-12-12-12-12-12||
G||-12-12-12-12-12-12-12-12-12-12-12-12-12-12-12-12||
C||-12-12-12-12-12-12-12-12-12-12-12-12-12-12-12-12||
 |                                                 ||
 |                                                 ||
 |Guitar Two                                       ||
D||------------------------------------------------||
A||----------13------------------------------------||
F||-10p09--------9----10p09----12p09----10p09-10p09||
C||------------------------------------------------||
G||------------------------------------------------||
C||------------------------------------------------||




 |Guitar One
 |  +     -    +    -     +   -    +   -
D||---------------------------------------||
A||---------------------------------------||
F||---------------------------------------||
C||-0--7--8-0--5--7-0--3--5-0-2--3--------||
G||---------------------------------------||
C||---------------------------------------||
 |                                        ||
 |                                        ||
 |Guitar Two                              ||
D||---------------------------------------||
A||---------------------------------------||
F||---------------------------------------||
C||-0-14-15-0-12-14-0-10-12-0-8-10--------||
G||---------------------------------------||
C||---------------------------------------||

            
            
Suggest correction
Creating personal tab
Creating personal tab
You can edit any tab online and save it as your Personal.

You can edit, replace or remove any tab part or add personal notes – all changes will be seen only by you.

Personal tabs can be accessed anytime from any device, even offline.
Learn more »
comments
print report bad tab
3 comments total.
0 reply
JCrompton 79 Sep 29, 2010 02:12 PM

Nah man, this isn't 100% right, that last few notes in the solo seem off. And pretty much after the solo isn't right. Not to mention that you left the very last part of the song out totally. 4* at best.

0 reply
JCrompton 79 Sep 29, 2010 02:18 PM

I've just been looking at the version 9 GP song and this looks like an exact copy, except you messed around with it a little so it's not right...

0 reply
poetichu$tler 226 Oct 05, 2010 01:09 PM

Obviously it's not 100% right, this is just my way of playing either guitars, rhythm or lead...
As for the solo, I tried my best to try and decipher it and I think it's kinda accurate actually but that's my opinion
I looked at it again and I noticed that I left the first half of guitar two out but it's almost the same as the first, just so you know
and yes I know I left the VERY last part out but I guess I was kinda hoping by common sense that a person would figure it out... probably stupid on my part
and I actaully did it from scratch... first time by the way

guest
You may want to rate the tab now too:
select rating
Wanna post a correction for this tab? Suggest correction