Oops, an error
Loading. Please wait.

Hearts Burst Into Fire Acoustic Tab

version 1
version 1

Whole song

Interactive

184,655 views 99 this week
11 commentsread comments
1 2 3 4 5
excellent!
x 34
add to favorites
launch autoscroll
font size
0
reset
how to read this tab
guitar tuner
Tab Pro tools
  • play this tab
  • loop segment
  • change instrument
  • show fretboard
  • metronome
Autoscroll
slow
fast
+/-
esc
set tempo
stop
Difficulty
intermediate
Artist: Bullet For My Valentine
Song: Hearts Burst Into Fire Acoustic
Album : Hearts Burst Into Fire Single

Tabbed by:marco66666
Email: marco66666@gmail.com

Tuning:CGCFAD(Guitar Dropped C Tunning)

Enjoy!!!

Intro:

D|------------|
A|------------|
F|------------|
C|-X-X-X-X-3--|
G|-X-X-X-X-3--|
C|-X-X-X-X-3--|

Verse:

D|--------------------------------------------------|
A|-6---6-6-6-6---5---5-5-5-5---6---6-6-6-6---5-5-6--|
F|-5---5-5-5-5---5---5-5-5-5---5---5-5-5-5---5-5-5--|
C|-3---3-3-3-3---3---3-3-3-3---3---3-3-3-3---3-3-3--|
G|-3---3-3-3-3---3---3-3-3-3---3---3-3-3-3---3-3-3--|
C|-3---3-3-3-3---3---3-3-3-3---3---3-3-3-3---3-3-3--|

D|-5---5-5-5-5---3---3-3-3-3---5---5-5-5-5---3-5-3-5--|
A|-6---6-6-6-6---6---6-6-6-6---6---6-6-6-6---6-6-6-6--|
F|-3---3-3-3-3---3---3-3-3-3---3---3-3-3-3---3-3-3-3--|
C|-3---3-3-3-3---3---3-3-3-3---3---3-3-3-3---3-3-3-3—-|  X3
G|-3---3-3-3-3---3---3-3-3-3---3---3-3-3-3---3-3-3-3--|
C|-0---0-0-0-0---0---0-0-0-0---0---0-0-0-0---0-0-0-0--|

Pre Chorus :
D|---------------------------------------|
A|---------------------------------------|
F|-3--33333333333--3-5--7--777777777777--|
C|-3--33333333333--3-5--7--777777777777--|
G|-1--11111111111--1-3--5--555555555555--|
C|---------------------------------------|

D|---------------------------------------------|
A|---------------------------------------------|
F|-7-5--3--333333333333--5--555555555555--3-5--|
C|-7-5--3--333333333333--5--555555555555--3-5--|
G|-5-3--1--111111111111--3--333333333333--1-3--|
C|---------------------------------------------|


Chorus :
D|---------------------------------------|
A|---------------------------------------|
F|-7-7777—-3-3333--5-55555555555--3-5-7--|
C|-7-7777--3-3333--5-55555555555--3-5-7—-|   X3
G|-5-5555--1-1111--3-33333333333--1-3-5--|
C|---------------------------------------|

End of Chorus :
D|-----------------------------------------|
A|-----------------------------------------|
F|-7-7777—-3-3333--5-55555555555--7777777--|
C|-7-7777--3-3333--5-55555555555--7777777—-|
G|-5-5555--1-1111--3-33333333333--5555555--|
C|-----------------------------------------|

Break (i’m not sure…please correct me):

Guitar  1 :
D|----
A|----
F|-0--
C|-0--
G|-0--
C|-0--

Guitar 2 :
D|-5--
A|-6--
F|-3--
C|-3--
G|-3--
C|-0--

Guitar  1 :
D|---5-----5---3-----3-----3------5-----5-----5-------5-------5----|
A|-----6---------6-----6------6-----6-----6-----6---6---6---6---6--|
F|-3-----3---3-----3-----3------3-----3-----3-----3-------3--------|  X2
C|-----------------------------------------------------------------|
G|-----------------------------------------------------------------|
C|-----------------------------------------------------------------|

D|---5-----5---3-----3-----3------8-----8-----8-------5-------5----|
A|-----6---------6-----6------6-----6-----6-----6---6---6---6---6--|
F|-3-----3---3-----3-----3------3-----3-----3-----3-------3--------|
C|-----------------------------------------------------------------|
G|-----------------------------------------------------------------|
C|-----------------------------------------------------------------|

D|---5-----5---3-----3-----3------5-----5-----5-------5-------5----|
A|-----6---------6-----6------6-----6-----6-----6---6---6---6---6--|
F|-3-----3---3-----3-----3------3-----3-----3-----3-------3--------|  X3
C|-----------------------------------------------------------------|
G|-----------------------------------------------------------------|
C|-----------------------------------------------------------------|

Guitar 2:

D|-------------------------------------------------|
A|---6-----6---5-----5-----5-----6----6-----6------|
F|-----5---------5-----5-----5-----5----5-----5----|
C|-3-----3---3-----3-----3-----3-----3----3-----3--|
G|-------------------------------------------------|
C|-------------------------------------------------|


D|--------------3------------------------------------------------|
A|-5-----5--------5-----6-----6-----5----5-----5----6-----6------|
F|---5-----5--------5-----5-----5-----5----5-----5----5-----5----|
C|-----3-----3--------3-----3-----3-----3----3-----3----3-----3--|
G|---------------------------------------------------------------|
C|---------------------------------------------------------------|

Guitar 3:

D|----------------------------------------3------------|
A|------------3------------------3--------6------------|
F|-----3--5---2--3--5--3---3--5--2--3--5--3------------|
C|-----3--5---0--3--5--3---3--5--0--3--5--3------------|
G|-----1--3------1--3--1---1--3-----1--3--3------------|
C|----------------------------------------0------------|


End of Break:

D|-3--
A|-5—-
F|-5—-
C|-3--
G|-3--
C|-3--


Break 2:

D|-3—s13-12----------------|
A|-6--------13-------------|
F|-5-----------12-10-9-10--|
C|-3-----------------------|
G|-3-----------------------|
C|-3-----------------------|

End Of Break 2:
D|-s13-12---------------------|
A|--------13------------------|
F|-----------12-10-12b-10-10--|
C|----------------------------|
G|----------------------------|
C|----------------------------|

Any comments or corrections at marco66666@gmail.com
comments
print report bad tab
11 comments total. Showing first comments. show 1 bad comment
+1 reply
sobeit wrote on August 14 2008, 11:45 am

amazing.

+3 reply
msmelendez wrote on November 16 2008, 01:48 am

perfect!!!!!!!!!!

I want to post or [tab]
guest
You may want to rate the tab now too:
select rating
Please do not post tabs as comments. Select "correction" instead!