Oops, an error
Loading. Please wait.

Hearts Burst Into Fire Tab

version 1
1,001,585 views 552 this week
129 commentsread comments
1 2 3 4 5
excellent!
x 200
add to favorites
launch autoscroll
font size
0
reset
how to read this tab
guitar tuner
Autoscroll
slow
fast
+/-
esc
set tempo
stop
Help us to improve Ultimate-Guitar.com Take our survey!
×
Contributor
Tuning
Anik8 398
C G C F A D
Tabbed by: Aniket Patni
Email: ani_k8@hotmail.com

Tuning: Drop C Tuning (CGCFAD)

Entire song is tabbed by ear, and done myself.
I Havent done some parts, might do them later if i get time
if anyone has any corrections or wants to add to any part of the song,
please email me and i will make the changes/additions and duly credit you.

Im Very bad at tabbing so if you could not understand, im sorry, and please
let me know.

If Anyone converts this to GP, Awesome! but please credit me as well.

If you want to hear it, I've recorded myself playing the song with these tabs
at this address :
http://www.youtube.com/watch?v=AXVJv8FrF9A

Anyway, here we go!


[Intro]

Guitar-1 Clean (Padge)

D|---------3-----3-----3-----3-------------0-----------------------|
A|-----6-----6-----6-----6-----6-------------6---------------------|
F|-------5-----5-----5-----5-----5-------5-----5-------------------|
C|-------------------------------------6---------0-----------------|
G|---3-------------------------------0-----------------------------|
C|-3-------------------------------0-------------------------------|


D|---------3-----3-----3-----3-------------0--------0--------------|
A|-----6-----6-----6-----6-----6-------------6--------6------------|
F|-------5-----5-----5-----5-----5-------5-----5--------5----------|
C|-------------------------------------6---------0--------0--------|   X 2
G|---3-------------------------------0-----------------------------|
C|-3-------------------------------0-------------------------------|

Gtr2 Dist. (Tuck)

D|-----------------------------------------------------------------|
A|-------13--------------------------------------------------------|
F|-~9-10-----10-9-10-~7--5-5(sustain)--7-7-9-9-10-10-12-12^--------|
C|-----------------------------------------------------------------|
G|-----------------------------------------------------------------|
C|-----------------------------------------------------------------|

D|----------------------------------------------------------------|
A|----------------------------------------------------------------|
F|-10h12h10h12h10h14-(X 5)-10h12h10h12--9h10h9h10h9h12-(X 5)-12^--|
C|====-----------(Hammer Ons And Pull Offs)-----------------------|
G|----------------------------------------------------------------|
C|----------------------------------------------------------------|

D|----------------------------------------------------------------|
A|-------------------10-8----8-10-11-10---6(sustain)--------------|
F|-7-9-9-10-10-5-5--------10--------------------------------------|
C|----------------------------------------------------------------|
G|----------------------------------------------------------------|
C|----------------------------------------------------------------|


[Pre-verse]

Guitar 1 (Tuck)
D|------------------------------------------------------------------|
A|-6-6---------6---5-5--------5---6-6---------6---5-5---6-6---------|
F|-5-5---------5---5-5--------5---5-5---------5---5-5---5-5---------|
C|------------------------------------------------------------------|
G|------------------------------------------------------------------|
C|-----3-3-3-3---3----3-3-3-3---3-----3-3-3-3---3-----3-----3-------|


D|------------------------------------------------------------------|
A|-6-6---------6---5-5--------5---6-6--------6----5-6---5-6---------|
F|-5-5---------5---5-5--------5---5-5--------5----5-5---5-5---------|
C|------------------------------------------------------------------|
G|------------------------------------------------------------------|
C|-----0-0-0-0---0----0-0-0-0---0-----0-0-0-0---0-----0-----0-------|


[Verse] (Both Guitars)

D|------------------------------------------------------------------|
A|-6-6---------6---5-5--------5---6-6---------6---5-5---6-6---------|
F|-5-5---------5---5-5--------5---5-5---------5---5-5---5-5---------|
C|------------------------------------------------------------------|
G|------------------------------------------------------------------|
C|-----3-3-3-3---3----3-3-3-3---3-----3-3-3-3---3-----3-----3-------|

                                                                       X 2

D|------------------------------------------------------------------|
A|-6-6---------6---5-5--------5---6-6--------6----5-6---5-6---------|
F|-5-5---------5---5-5--------5---5-5--------5----5-5---5-5---------|
C|------------------------------------------------------------------|
G|------------------------------------------------------------------|
C|-----0-0-0-0---0----0-0-0-0---0-----0-0-0-0---0-----0-----0-------|


[Bridge] (Both GUitars)

D|------------------------------------------------------------------|
A|------------------------------------------------------------------|
F|-3-3---------------------3-5-7-------------------7-5--------------|
C|-3-3---------------------3-5-7-------------------7-5--------------|
G|-1-1-1-1-1-1-1-1-1-1-1-1-1-3-5-5-5-5-5-5-5-5-5-5-5-3--------------|
C|------------------------------------------------------------------|

D|------------------------------------------------------------------|
A|------------------------------------------------------------------|
F|-3-3---------------------3-5-5-------------------3-5-5------------|
C|-3-3---------------------3-5-5-------------------3-5-3------------|
G|-1-1-1-1-1-1-1-1-1-1-1-1-1-3-3-5-5-5-5-5-5-5-5-5-1-3-3------------|
C|------------------------------------------------------------------|


[Pre chorus] (Im doing only Padgets Lead here)

D|---------------------------------------------------------------|
A|---------------------------------------------------------------|
F|-10-12-10-17-15-14-15-12(sustain)-10---------------------------|
C|---------------------------------------------------------------|
G|-—-------------------------------------------------------------|
C|---------------------------------------------------------------|

D|---------------------------------------------------------------|
A|---------------------------------------------------------------|
F|-10-12-10-17-15-14-15-12(sustain)-14-15-14----14---------------|
C|-------------------------------------------17----17-15---------|
G|-—-------------------------------------------------------------|
C|---------------------------------------------------------------|


[Chorus](Both GUitars)

D|---------------------------------------------------------------|
A|---------------------------------------------------------------|
F|--------------------------5---------------5-5-5-3-5------------|
C|-7---7---8---5--3---3-5-2-5---------------5-5-5-3-5------------| x 2
G|-5-5---5---5----1-1-------3-3-3-3-3-3-3-3-3-3-3-1-3------------|
C|---------------------------------------------------------------|


Repeat [Verse], [Bridge], [Pre Chorus] and [Chorus]


[Interlude] 
(Doing Matts part here only..havent checked the acoustic bit yet)

D|------------------------------------------------------------------|
A|------------------------------------------------------------------|
F|------------------------------------------------------------------|
C|--------------3-5-------------3-5-3-------------3-5-----------3-5-|
G|-0------------3-5--0----------3-5-3-(sustain)---3-5-0---------3-5-|
C|-0------------1-3--0----------1-3-1-------------1-3-0---------1-3-|
c|-0-----------------0--------------------------------0-------------|


[Re-verse] (With some modification)

D|----------------------------------------------------------------------|
A|-6-6-----5---5----5-----5---6-----6-----6---5---5---5---5-------------|
F|-5-5-----6---5----5-----5---5-----5-----5---5---6---5---6-------------|
C|----------------------------------------------------------------------|
G|----------------------------------------------------------------------|
C|-----3-3---3--3-3---3-3---3---3-3---3-3---3---3---3---3---3-----------|

D|----------------------------------------------------------------------|
A|-6-6-----5---5----5-----5---6-----6-----6---5-------------------------|
F|-5-5-----6---5----5-----5---5-----5-----5---5-------------------------|
C|----------------------------------------------------------------------|
G|----------------------------------------------------------------------|
C|-----3-3---3--3-3---3-3---3---3-3---3-3---3---------------------------|


Repeat [Bridge], [Pre-Chorus], [Chorus]


[Interlude-Outro] (Padgets Part, Without the Harmoized guitar)

D|--slide-in -10-9-----------------------slide-in-10-9--------------------|
A|------------------10---------------------------------10-----------------|
F|---------------------11-9-6-7--(X 3)--------------------11-9-12-11------|
C|------------------------------------------------------------------------|
G|------------------------------------------------------------------------|
C|------------------------------------------------------------------------|


Repeat [Verse] x2


[Outro]

Matts Guitar :

D|-------------------------------------------------------------------------|
A|-------------------------------------------------------------------------|
F|3-5----------------------------------------------------------------------|
C|3-5-0--------------------------------------------------------------------|
G|1-3-0--------------------------------------------------------------------|
C|----0--------------------------------------------------------------------|

Padgets Guitar :

D|--slide-in -10-9--------------------------------------------------------|
A|------------------10----------------------------------------------------|
F|---------------------11-9-6-7--(X 8-9 times with eventually slowin down)|
C|------------------------------------------------------------------------|
G|------------------------------------------------------------------------|
C|------------------------------------------------------------------------|

Thats Pretty much it.
Enjoy!

EDIT: made a mistake at the intro solo,and also at the guitar names, have fixed it, 
to Syn_66 for pointing them out.



************************************

| h  Hammer-on
| ~  Vibrato

************************************
comments
print report bad tab
129 comments total. Showing first comments.
+7 reply
heather g 18 wrote on January 29 2008, 11:42 am

Awesome tab, i was hoping someone would do a decent tab for any song off the new album, luckily you did my favourite
song!! thankyou!!

+7 reply
meistermuetze 262 wrote on January 30 2008, 03:28 pm

I LOVE YOU!!

+5 reply
steve_6661 53 wrote on January 31 2008, 11:12 am

pretty good tab, the song is ****in awsome:)

I want to post or [tab]
guest
You may want to rate the tab now too:
select rating
Please do not post tabs as comments. Select "correction" instead!