Oops, an error
Loading. Please wait.
We have an official Hearts Burst Into Fire tab made by UG professional guitarists. Check out the tab »
×
20,638 views 3 this week
2 commentsread comments
1 2 3 4 5
x 5
add to favorites
×
Save as Personal and add changes to this tab that will be seen only by you. Learn more ›
×
You can save this tab as Personal to edit and correct it or add notes. All changes will be seen only by you. Learn more »
launch autoscroll
font size
0
reset
guitar tuner
backing track
0:00
0:00
edit
Autoscroll
slow
fast
+/-
esc
set tempo
stop
Author
=Intro=
F-------|
C-------|  4x
G-5~-3~-|
C-------|

F-------------------------------------|
C-------------------------------------|  2x (Dont repeat the 3's on the second time)
G-1-1-11~-1-1-11----------------------|
C------------------3-3-33~-3-3-33~----|

F--------|
C--------|
G-0--3~--|
C------3~|

=Riff=
F-------------------------------|
C-------------------------------|  2x
G-3-3333-5--33333-5--33333-3355-|
C-------------------------------|

=Pre-Chorus=
F----------------------------------------------------------|
C----------------------------------------------------------|
G-111111111-1-3-555555555-5-3-11111111-1-1-333333333-3x1-3-|
C----------------------------------------------------------|

=Chorus=
F----------------------------|
C----------------------------|
G-5xxx3h5h3-1xxx88-33333-1-3-|
C----------------------------|

F--------------------------------------------|
C--------------------------------------------|
G-55555-11111-33333-1-3-555555-111111-333333-|
C--------------------------------------------|

=Riff=
F-------------------------------|
C-------------------------------|  2x
G-3-3333-5--33333-5--33333-3355-|
C-------------------------------|


=Pre-Chorus=
F----------------------------------------------------------|
C----------------------------------------------------------|
G-111111111-1-3-555555555-5-3-11111111-1-1-333333333-3x1-3-|
C----------------------------------------------------------|

=Chorus=
F----------------------------|
C----------------------------|
G-5xxx3h5h3-1xxx88-33333-1-3-|2x
C----------------------------|

F--------------------------------------------|
C--------------------------------------------|
G-55555-11111-33333-1-3-555555-111111-333333-|
C--------------------------------------------|

=Bridge=
F--------------------------|
C--------------------------|
G---1-3---1-3---1-3---1-3--|
C-0~----0~---5~----0~----0~|

=Pre-Chorus=
F----------------------------------------------------------|
C----------------------------------------------------------|
G-111111111-1-3-555555555-5-3-11111111-1-1-333333333-3x1-3-|
C----------------------------------------------------------|

=Chorus=
F----------------------------|
C----------------------------|
G-5xxx3h5h3-1xxx88-33333-1-3-|
C----------------------------|

F-----------------------------------------------|
C-----------------------------------------------|
G-55555-11111-33333-1-3-555555-111111-333333----|
C--------------------------------------------3~-|

=Break=

=Outro=
F-------------------------------|
C-------------------------------|  2x
G-3-3333-5--33333-5--33333-3355-|
C-------------------------------|


F--------|
C--------|
G-1-3----|
C-----0~-|


If You Have Any Corrections Email me at
freshtildeathxd@yahoo.com

            
            
Suggest correction
Creating personal tab
Creating personal tab
You can edit any tab online and save it as your Personal.

You can edit, replace or remove any tab part or add personal notes – all changes will be seen only by you.

Personal tabs can be accessed anytime from any device, even offline.
Learn more »
comments
print report bad tab
2 comments total.
0 reply
Oh-dear-lord 61 Jan 11, 2009 11:10 PM

The intro isnt correct

0 reply
bassforkto 10 Aug 06, 2009 04:35 PM

yeah i don't play the 5 and 3 in the intro. and in the bridge the second ---1---3--- on the G string should be 1---3---1. but other than that its a pretty awesome tab.

guest
You may want to rate the tab now too:
select rating
Wanna post a correction for this tab? Suggest correction