Oops, an error
Loading. Please wait.
We have an official Hearts Burst Into Fire tab made by UG professional guitarists. Check out the tab »
×
18,595 views 6 this week
10 commentsread comments
1 2 3 4 5
x 5
add to favorites
×
Save as Personal and add changes to this tab that will be seen only by you. Learn more ›
×
You can save this tab as Personal to edit and correct it or add notes. All changes will be seen only by you. Learn more »
launch autoscroll
font size
0
reset
how to read this tab
guitar tuner
backing track
0:00
0:00
edit
Autoscroll
slow
fast
+/-
esc
set tempo
stop
Author
Difficulty
Bullet for my Valentine - Hearts burst into Fire
================================================

These are the Tabs for the normal Guitar-Tuning (E/A/D/G/B/E)


Intro :

Guitar-1 Clean (Padge)

E|---------1-----1-----1-----1-------------0-----------------------|
H|-----4-----4-----4-----4-----4-------------4---------------------|
G|-------3-----3-----3-----3-----3-------3-----3-------------------|
D|-------------------------------------4---------0-----------------|
A|---1-------------------------------0-----------------------------|
E|-1-------------------------------0-------------------------------|


E|---------1-----1-----1-----1-------------0--------0--------------|
H|-----4-----4-----4-----4-----4-------------4--------4------------|
G|-------3-----3-----3-----3-----3-------3-----3--------3----------|
D|-------------------------------------4---------0--------0--------|   X 2
A|---1-------------------------------0-----------------------------|
E|-1-------------------------------0-------------------------------|

Gtr2 Dist. (Tuck)

E|------------------------------------------------------------------|
H|-------11~~-------------------------------------------------------|
G|-7-h8~~-----8-7-8---3/5~~5/3--3~~/5--5~~/7--7~~/8--8~~/10---------|
D|------------------------------------------------------------------|
A|------------------------------------------------------------------|
E|-------------------------------------------------------------- ---|

E|------------------------------------------------------------------|
H|------------------------------------------------------------------|
G|-8h10h8h10h8h12-(5 times)-8h10h8h10--7h8h7h8h7h10-(5 times)-10----|
D|------------------------------------------------------------------|
A|----------------(hammer and pulls)--------------------------------|
E|------------------------------------------------------------------|

E|----------------------------------------------------------------|
H|-------------------8-6----6-8-9-8---4~~~~-----------------------|
G|-5-7-5-8-8-3-3--------8-----------------------------------------|
D|----------------------------------------------------------------|
A|----------------------------------------------------------------|
E|----------------------------------------------------------------|


Pre-verse :

E|------------------------------------------------------------------|
H|-4-4---------4---3-3--------3---4-4---------4---3-3---4-4---------|
G|-3-3---------3---3-3--------3---3-3---------3---3-3---3-3---------|
D|------------------------------------------------------------------|
A|------------------------------------------------------------------|
E|-----1-1-1-1---1----1-1-1-1---1-----1-1-1-1---1-----1-----1-------|


E|------------------------------------------------------------------|
H|-4-4---------4---3-3--------3---4-4--------4----3-4---3-4---------|
G|-3-3---------3---3-3--------3---3-3--------3----3-3---3-3---------|
D|------------------------------------------------------------------|
A|------------------------------------------------------------------|
E|-----0-0-0-0---0----0-0-0-0---0-----0-0-0-0---0-----0-----0-------|


Verse : 
E|------------------------------------------------------------------|
H|-4-4---------4---3-3--------3---4-4---------4---3-3---4-3---------|
G|-3-3---------3---3-3--------3---3-3---------3---3-3---3-4---------|
D|------------------------------------------------------------------|
A|------------------------------------------------------------------|
E|-----1-1-1-1---1----1-1-1-1---1-----1-1-1-1---1-----1-----1-------|

                                                                       X 2

E|------------------------------------------------------------------|
H|-4-4---------4---3-3--------3---4-4--------4----3-4---3-4---------|
G|-3-3---------3---3-3--------3---3-3--------3----3-3---3-3---------|
D|------------------------------------------------------------------|
A|------------------------------------------------------------------|
E|-----0-0-0-0---0----0-0-0-0---0-----0-0-0-0---0-----0-----0-------|


Bridge:

E|------------------------------------------------------------------|
H|------------------------------------------------------------------|
G|-3-3---------------------3-5-7-------------------7-5--------------|
D|-3-3---------------------3-5-7-------------------7-5--------------|
A|-1-1-1-1-1-1-1-1-1-1-1-1-1-3-5-5-5-5-5-5-5-5-5-5-5-3--------------|
E|------------------------------------------------------------------|

E|------------------------------------------------------------------|
H|------------------------------------------------------------------|
G|-3-3---------------------3-5-5-------------------3-5-5------------|
D|-3-3---------------------3-5-5-------------------3-5-3------------|
A|-1-1-1-1-1-1-1-1-1-1-1-1-1-3-3-5-5-5-5-5-5-5-5-5-1-3-3------------|
E|------------------------------------------------------------------|

Pre chorus:

D|---------------------------------------------------------------|
A|---------------------------------------------------------------|
F|-8-10-8-15-13-12-13-10~~~~~-8----------------------------------|
C|---------------------------------------------------------------|
G|-—-------------------------------------------------------------|
C|---------------------------------------------------------------|

D|---------------------------------------------------------------|
A|---------------------------------------------------------------|
F|-8-10-8-15-13-12-13-10~~~~~-12-13-10----12---------------------|
C|-------------------------------------------15----15-13---------|
G|-—-------------------------------------------------------------|
C|---------------------------------------------------------------|

Chorus:


D|---------------------------------------------------------------|
A|---------------------------------------------------------------|
F|--------------------------5---------------5-5-5-3-5------------|
C|-5---5---6---2--3---3-5-2-5---------------5-5-5-3-5------------| x 2
G|-3-3---3---3----1-1-------3-3-3-3-3-3-3-3-3-3-3-1-3------------|
C|---------------------------------------------------------------|


Verse

Bridge 

Pre Chorus

Chorus

Interlude 

E|------------------------------------------------------------------|
H|------------------------------------------------------------------|
G|--------------3-5-------------3-5-3-~~~---------3-5-----------3-5-|
D|-0------------3-5--0----------3-5-3-~~~---------3-5-0---------3-5-|
A|-0------------1-3--0----------1-3-1-~~~---------1-3-0---------1-3-|
E|-0-----------------0--------------------------------0-------------|

Re-verse

E|----------------------------------------------------------------------|
H|-4-4-----3---3----3-----3---4-----4-----4---3---3---3---3-------------|
G|-3-3-----4---3----3-----3---3-----3-----3---3---4---3---4-------------|
D|----------------------------------------------------------------------|
A|----------------------------------------------------------------------|
E|-----1-1---1--1----1-1---1---1-1---1-1---1---1----1---1---1-----------|

E|----------------------------------------------------------------------|
H|-4-4-----3---3----3-----3---4-----4-----4---3-------------------------|
G|-3-3-----4---3----3-----3---3-----3-----3---3-------------------------|
D|----------------------------------------------------------------------|
A|----------------------------------------------------------------------|
E|-----1-1---1--1-1---1-1---1---1-1---1-1---1---------------------------|

Bridge 

Pre-Chorus 

Chorus

First Outro:

E|--slide-8-7---------------------------slide-8-7-------------------------|
H|------------------8---------------------------------8-------------------|
G|---------------------9-7-4-5--(x3)--------------------9-7-10-9----------|
D|------------------------------------------------------------------------|
A|------------------------------------------------------------------------|
E|------------------------------------------------------------------------|



Verse (2 times)

Second Outro:

1st Guitar

E|-------------------------------------------------------------------------|
H|-------------------------------------------------------------------------|
G|3-5----------------------------------------------------------------------|
D|3-5-0--------------------------------------------------------------------|
A|1-3-0--------------------------------------------------------------------|
E|----0--------------------------------------------------------------------|

2nd Guitar

D|--slide---8-7---------------------------|
A|------------------8---------------------|
F|---------------------9-7-4-5------------|   8 or 9 times (Slowin´ Down)
C|----------------------------------------|
G|----------------------------------------|
C|----------------------------------------|

            
            
Suggest correction
Creating personal tab
Creating personal tab
You can edit any tab online and save it as your Personal.

You can edit, replace or remove any tab part or add personal notes – all changes will be seen only by you.

Personal tabs can be accessed anytime from any device, even offline.
Learn more »
comments
print report bad tab
10 comments total. Showing first comments.
0 reply
samlocke14 162 Jul 02, 2008 02:16 AM

bullet use drop c in this song.

0 reply
Örbel 158 Jul 02, 2008 05:29 AM

I know that they use drop c but I tabbed the song for the normal tuning (maybe for the people who dont want to drop the guitar down)

+2 reply
childofkorn 30 Jul 02, 2008 05:43 AM

To play a song that is in drop tuning in standard is always a bad idea.
That just don't work:
D|--0--
A|--0--
E|--0--
Sounds like shit=don't be too lazy to play in the right key!

guest
You may want to rate the tab now too:
select rating
Wanna post a correction for this tab? Suggest correction