Oops, an error
Loading. Please wait.
We have an official Hearts Burst Into Fire tab made by UG professional guitarists. Check out the tab »
×
39,379 views 12 this week
2 commentsread comments
1 2 3 4 5
x 14
add to favorites
×
Save as Personal and add changes to this tab that will be seen only by you. Learn more ›
×
You can save this tab as Personal to edit and correct it or add notes. All changes will be seen only by you. Learn more »
launch autoscroll
font size
0
reset
how to read this tab
guitar tuner
backing track
0:00
0:00
edit
Autoscroll
slow
fast
+/-
esc
set tempo
stop
Hearts Burst Into Fire Acoustic
Bullet For My Valentine
Scream Aim Fire Deluxe Edition
Drop C- CGCFAD

-Intro-
Matt & Padge
D|-------------------------------------------------------------------|
A|-------------6--6-6-6-6--6-5--5-5-5-5--5-6--6-6-6-6--6-5--5-5--5-6-|
F|-------------5--5-5-5-5--5-5--5-5-5-5--5-5--5-5-5-5--5-5--5-5--5-5-|
C|-x--x--x--x--3--3-3-3-3--3-3--3-3-3-3--3-3--3-3-3-3--3-3--3-3--3-3-|
G|-x--x--x--x--3--3-3-3-3--3-3--3-3-3-3--3-3--3-3-3-3--3-3--3-3--3-3-|
C|-x--x--x--x--3--3-3-3-3--3-3--3-3-3-3--3-3--3-3-3-3--3-3--3-3--3-3-|
"1, 2, 3, 4"

Matt
D|---------------------------------------------------------------------|
A|-10--10-10-10-10--10-8--8-8-8-8--8-10--10-10-10-10--10--8--10--8--10-|
F|-10--10-10-10-10--10-9--9-9-9-9--9-10--10-10-10-10--10--9--10--9--10-|
C|-0---0--0--0--0---0--0--0-0-0-0--0-0---0--0--0--0---0---0--0---0--0--|
G|-0---0--0--0--0---0--0--0-0-0-0--0-0---0--0--0--0---0---0--0---0--0--|
C|-0---0--0--0--0---0--0--0-0-0-0--0-0---0--0--0--0---0---0--0---0--0--|
Padge
D|---------------------------------------------------------------------|
A|-6---6--6--6--6---6--5--5-5-5-5--5-6---6--6--6--6---6---5--6---5--6--|
F|-5---5--5--5--5---5--5--5-5-5-5--5-5---5--5--5--5---5---5--5---5--5--|
C|-0---0--0--0--0---0--0--0-0-0-0--0-0---0--0--0--0---0---0--0---0--0--|
G|-0---0--0--0--0---0--0--0-0-0-0--0-0---0--0--0--0---0---0--0---0--0--|
C|-0---0--0--0--0---0--0--0-0-0-0--0-0---0--0--0--0---0---0--0---0--0--|


-Verse-
D||--------------------------------------------------------|
A||o-6--6-6-6-6--6-5--5-5-5-5--5-6--6-6-6-6--6-5--5-5--5-6-|
F||--5--5-5-5-5--5-5--5-5-5-5--5-5--5-5-5-5--5-5--5-5--5-5-|
C||--3--3-3-3-3--3-3--3-3-3-3--3-3--3-3-3-3--3-3--3-3--3-3-|
G||o-3--3-3-3-3--3-3--3-3-3-3--3-3--3-3-3-3--3-3--3-3--3-3-|
C||--3--3-3-3-3--3-3--3-3-3-3--3-3--3-3-3-3--3-3--3-3--3-3-|
-"I'm comin' home, I've been gone for far too long
-I'm leavin', have I fucked things up again?

Matt
D|----------------------------------------------------------------------||
A|-10--10-10-10-10--10-8--8-8-8-8--8-10--10-10-10-10--10--8--10--8--10-o||
F|-10--10-10-10-10--10-9--9-9-9-9--9-10--10-10-10-10--10--9--10--9--10--||
C|-0---0--0--0--0---0--0--0-0-0-0--0-0---0--0--0--0---0---0--0---0--0---||
G|-0---0--0--0--0---0--0--0-0-0-0--0-0---0--0--0--0---0---0--0---0--0--o||
C|-0---0--0--0--0---0--0--0-0-0-0--0-0---0--0--0--0---0---0--0---0--0---||
Padge
D|----------------------------------------------------------------------||
A|-6---6--6--6--6---6--5--5-5-5-5--5-6---6--6--6--6---6---5--6---5--6--o||
F|-5---5--5--5--5---5--5--5-5-5-5--5-5---5--5--5--5---5---5--5---5--5---||
C|-0---0--0--0--0---0--0--0-0-0-0--0-0---0--0--0--0---0---0--0---0--0---||
G|-0---0--0--0--0---0--0--0-0-0-0--0-0---0--0--0--0---0---0--0---0--0--o||
C|-0---0--0--0--0---0--0--0-0-0-0--0-0---0--0--0--0---0---0--0---0--0---||
...Do you remember me at all?
...I'm dreamin', too much time without you spent"


-Pre Chorus-
D|-------------------------------------------------------|
A|-------------------------------------------------------|
F|-3-3-3-3-3-3-3-3-3-3-3-3--3-5--7-7-7-7-7-7-7-7-7-7-7-7-|
C|-3-3-3-3-3-3-3-3-3-3-3-3--3-5--7-7-7-7-7-7-7-7-7-7-7-7-|
G|-1-1-1-1-1-1-1-1-1-1-1-1--1-3--5-5-5-5-5-5-5-5-5-5-5-5-|
C|-------------------------------------------------------|
"It hurts... wounds so sore

D|----------------------------------------------------------|
A|----------------------------------------------------------|
F|-5--3-3-3-3-3-3-3-3-3-3-3-3--2-3--5-5-5-5-5-5-5-5-5-5-5-5-|
C|-5--3-3-3-3-3-3-3-3-3-3-3-3--2-3--5-5-5-5-5-5-5-5-5-5-5-5-|
G|-3--1-1-1-1-1-1-1-1-1-1-1-1--0-1--3-3-3-3-3-3-3-3-3-3-3-3-|
C|----------------------------------------------------------|
...Now I'm torn... now I'm torn

D||------------------------------------------------------------------||-----|
A||o----------------------------------------------------------------o||-----|
F||--3-5--7-7-7-7-7-7-7-7--3-3-3-3-3-3-3-3--5-5-5-5-5-5-5-5-5-5-5-5--||-3-5-|
C||--3-5--7-7-7-7-7-7-7-7--3-3-3-3-3-3-3-3--5-5-5-5-5-5-5-5-5-5-5-5--||-3-5-|
G||o-1-3--5-5-5-5-5-5-5-5--1-1-1-1-1-1-1-1--3-3-3-3-3-3-3-3-3-3-3-3-o||-1-3-|
C||------------------------------------------------------------------||-----|
...I've been far awaay
-When I see your face"
	`

-Chorus-
D|----------------------------------------------------------------|
A|----------------------------------------------------------------|
F|-7-7-7-7-7-7-7-7--3-3-3-3-3-3-3-3--5-5-5-5-5-5-5-5-5-5-5-5--3-5-|
C|-7-7-7-7-7-7-7-7--3-3-3-3-3-3-3-3--5-5-5-5-5-5-5-5-5-5-5-5--3-5-|
G|-5-5-5-5-5-5-5-5--1-1-1-1-1-1-1-1--3-3-3-3-3-3-3-3-3-3-3-3--1-3-|
C|----------------------------------------------------------------|
"My Hearts Burst Into Fire...

D|----------------------------------------------------------------------------|
A|----------------------------------------------------------------------------|
F|-7-7-7-7-7-7-7-7--3-3-3-3-3-3-3-3--5-5-5-5-5-5-5-5-5-5-5-5------------------|
C|-7-7-7-7-7-7-7-7--3-3-3-3-3-3-3-3--5-5-5-5-5-5-5-5-5-5-5-5--7-7-7-7-7-7-7-7-|
G|-5-5-5-5-5-5-5-5--1-1-1-1-1-1-1-1--3-3-3-3-3-3-3-3-3-3-3-3--3-3-3-3-3-3-3-3-|
C|----------------------------------------------------------------------------|
...Hearts Burst Into Fire"


-Verse-
D||--------------------------------------------------------|
A||o-6--6-6-6-6--6-5--5-5-5-5--5-6--6-6-6-6--6-5--5-5--5-6-|
F||--5--5-5-5-5--5-5--5-5-5-5--5-5--5-5-5-5--5-5--5-5--5-5-|
C||--3--3-3-3-3--3-3--3-3-3-3--3-3--3-3-3-3--3-3--3-3--3-3-|
G||o-3--3-3-3-3--3-3--3-3-3-3--3-3--3-3-3-3--3-3--3-3--3-3-|
C||--3--3-3-3-3--3-3--3-3-3-3--3-3--3-3-3-3--3-3--3-3--3-3-|
-"You're not alone, I'm now I'm far from home
-I'm leavin', do you wait for me again?

Matt
D|----------------------------------------------------------------------||
A|-10--10-10-10-10--10-8--8-8-8-8--8-10--10-10-10-10--10--8--10--8--10-o||
F|-10--10-10-10-10--10-9--9-9-9-9--9-10--10-10-10-10--10--9--10--9--10--||
C|-0---0--0--0--0---0--0--0-0-0-0--0-0---0--0--0--0---0---0--0---0--0---||
G|-0---0--0--0--0---0--0--0-0-0-0--0-0---0--0--0--0---0---0--0---0--0--o||
C|-0---0--0--0--0---0--0--0-0-0-0--0-0---0--0--0--0---0---0--0---0--0---||
Padge
D|----------------------------------------------------------------------||
A|-6---6--6--6--6---6--5--5-5-5-5--5-6---6--6--6--6---6---5--6---5--6--o||
F|-5---5--5--5--5---5--5--5-5-5-5--5-5---5--5--5--5---5---5--5---5--5---||
C|-0---0--0--0--0---0--0--0-0-0-0--0-0---0--0--0--0---0---0--0---0--0---||
G|-0---0--0--0--0---0--0--0-0-0-0--0-0---0--0--0--0---0---0--0---0--0--o||
C|-0---0--0--0--0---0--0--0-0-0-0--0-0---0--0--0--0---0---0--0---0--0---||
...Do you remember me at all?
...I'm screamin', no more days without you spent"


-Pre Chorus-
D|-------------------------------------------------------|
A|-------------------------------------------------------|
F|-3-3-3-3-3-3-3-3-3-3-3-3--3-5--7-7-7-7-7-7-7-7-7-7-7-7-|
C|-3-3-3-3-3-3-3-3-3-3-3-3--3-5--7-7-7-7-7-7-7-7-7-7-7-7-|
G|-1-1-1-1-1-1-1-1-1-1-1-1--1-3--5-5-5-5-5-5-5-5-5-5-5-5-|
C|-------------------------------------------------------|
"It hurts... wounds so sore

D|----------------------------------------------------------|
A|----------------------------------------------------------|
F|-5--3-3-3-3-3-3-3-3-3-3-3-3--2-3--5-5-5-5-5-5-5-5-5-5-5-5-|
C|-5--3-3-3-3-3-3-3-3-3-3-3-3--2-3--5-5-5-5-5-5-5-5-5-5-5-5-|
G|-3--1-1-1-1-1-1-1-1-1-1-1-1--0-1--3-3-3-3-3-3-3-3-3-3-3-3-|
C|----------------------------------------------------------|
...Now I'm torn... now I'm torn

D||------------------------------------------------------------------||-----|
A||o----------------------------------------------------------------o||-----|
F||--3-5--7-7-7-7-7-7-7-7--3-3-3-3-3-3-3-3--5-5-5-5-5-5-5-5-5-5-5-5--||-3-5-|
C||--3-5--7-7-7-7-7-7-7-7--3-3-3-3-3-3-3-3--5-5-5-5-5-5-5-5-5-5-5-5--||-3-5-|
G||o-1-3--5-5-5-5-5-5-5-5--1-1-1-1-1-1-1-1--3-3-3-3-3-3-3-3-3-3-3-3-o||-1-3-|
C||------------------------------------------------------------------||-----|
...I've been far awaay
-When I see your face"
	`

-Chorus-
D|----------------------------------------------------------------|
A|----------------------------------------------------------------|
F|-7-7-7-7-7-7-7-7--3-3-3-3-3-3-3-3--5-5-5-5-5-5-5-5-5-5-5-5--3-5-|
C|-7-7-7-7-7-7-7-7--3-3-3-3-3-3-3-3--5-5-5-5-5-5-5-5-5-5-5-5--3-5-|
G|-5-5-5-5-5-5-5-5--1-1-1-1-1-1-1-1--3-3-3-3-3-3-3-3-3-3-3-3--1-3-|
C|----------------------------------------------------------------|
"My Hearts Burst Into Fire...

D|----------------------------------------------------------------------------|
A|----------------------------------------------------------------------------|
F|-7-7-7-7-7-7-7-7--3-3-3-3-3-3-3-3--5-5-5-5-5-5-5-5-5-5-5-5------------------|
C|-7-7-7-7-7-7-7-7--3-3-3-3-3-3-3-3--5-5-5-5-5-5-5-5-5-5-5-5--7-7-7-7-7-7-7-7-|
G|-5-5-5-5-5-5-5-5--1-1-1-1-1-1-1-1--3-3-3-3-3-3-3-3-3-3-3-3--3-3-3-3-3-3-3-3-|
C|----------------------------------------------------------------------------|
...Hearts Burst Into Fire"


-Breakdown-
Matt
D||----------------------------------------------------------------||
A||o--------------------------------------------------------------o||
F||--3----5----2~~~~~~~~~~~~~~~~~~~~~~~~~~~~~~~~~~~~~~~~~~~~~~~~~~~||
C||--3----5----0~~~~~~~~~~~~~~~~~~~~~~~~~~~~~~~~~~~~~~~~~~~~~~~~~~~||
G||o-1----3----0~~~~~~~~~~~~~~~~~~~~~~~~~~~~~~~~~~~~~~~~~~~~~~~~~~o||
C||------------0~~~~~~~~~~~~~~~~~~~~~~~~~~~~~~~~~~~~~~~~~~~~~~~~~~~||
Padge
D||---5-----5---3-----3-----3-----5-----5-----5-------5-------5----||
A||o----6---------5-----5-----5-----6-----6-----6---6---6---6---6-o||
F||-3-----3---3-----3-----3-----3-----3-----3-----3-------3--------||
C||----------------------------------------------------------------||
G||o--------------------------------------------------------------o||
C||----------------------------------------------------------------||
"My bed so cold, so lonely...
...No arms, just sheets to hold me"

Matt
D|----------------------------------------------------------------|
A|----------------------------------------------------------------|
F|-3----5----3~~~~~~~~~~~~~~~~~~~~~~~~~~~~~~~~~~~~~~~~~~~~~~~~~~~~|
C|-3----5----3~~~~~~~~~~~~~~~~~~~~~~~~~~~~~~~~~~~~~~~~~~~~~~~~~~~~|
G|-1----3----1~~~~~~~~~~~~~~~~~~~~~~~~~~~~~~~~~~~~~~~~~~~~~~~~~~~~|
C|----------------------------------------------------------------|
Padge
D|---5-----5---3-----3-----3-----8-----8-----8-------5-------5----|
A|-----6---------5-----5-----5-----6-----6-----6---6---6---6---6--|
F|-3-----3---3-----3-----3-----3-----5-----5-----3-------3--------|
C|----------------------------------------------------------------|
G|----------------------------------------------------------------|
C|----------------------------------------------------------------|
"Has this world stopped turning"

Matt
D|---------------------------------------------------------------|
A|---------------------------------------------------------------|
F|-3----5--------------------------------------------3----5------|
C|-3----5----0~~~~~~~~~~~~~~~~~~~~~~~~~~~~~~~~~~~~~~-3----5----3-|
G|-1----3----0~~~~~~~~~~~~~~~~~~~~~~~~~~~~~~~~~~~~~~-1----3----3-|
C|-----------0~~~~~~~~~~~~~~~~~~~~~~~~~~~~~~~~~~~~~~-----------3-|
Padge
D|---5-----5---3-----3-----3-----5-----5-----5-------5-------5---|
A|-----6---------5-----5-----5-----6-----6-----6---6---6---6---6-|
F|-3-----3---3-----3-----3-----3-----3-----3-----3-------3-------|
C|---------------------------------------------------------------|
G|---------------------------------------------------------------|
C|---------------------------------------------------------------|
"Are we forever to be apart...               Forever to be apart"

Matt
D|-----------------------------------------------------------|
A|---6-----6---5-----5-----5-----6-----6-----6-------6-----6-|
F|-----5---------5-----5-----5-----5-----5-----5---5---5---5-|
C|-3-----3---3-----3-----3-----3-----3-----3-----3-------3---|
G|-----------------------------------------------------------|
C|-----------------------------------------------------------|
Padge
D|---5-----5---3-----3-----3-----5-----5-----5-------5-----5-|
A|-----6---------5-----5-----5-----6-----6-----6---6---6---6-|
F|-3-----3---3-----3-----3-----3-----3-----3-----3-------3---|
C|-----------------------------------------------------------|
G|-----------------------------------------------------------|
C|-----------------------------------------------------------|


-Pre Chorus-
Matt & Padge
D|-------------------------------------------------------|
A|-------------------------------------------------------|
F|-3-3-3-3-3-3-3-3-3-3-3-3--3-5--7-7-7-7-7-7-7-7-7-7-7-7-|
C|-3-3-3-3-3-3-3-3-3-3-3-3--3-5--7-7-7-7-7-7-7-7-7-7-7-7-|
G|-1-1-1-1-1-1-1-1-1-1-1-1--1-3--5-5-5-5-5-5-5-5-5-5-5-5-|
C|-------------------------------------------------------|
"It hurts... wounds so sore

D|----------------------------------------------------------|
A|----------------------------------------------------------|
F|-5--3-3-3-3-3-3-3-3-3-3-3-3--2-3--5-5-5-5-5-5-5-5-5-5-5-5-|
C|-5--3-3-3-3-3-3-3-3-3-3-3-3--2-3--5-5-5-5-5-5-5-5-5-5-5-5-|
G|-3--1-1-1-1-1-1-1-1-1-1-1-1--0-1--3-3-3-3-3-3-3-3-3-3-3-3-|
C|----------------------------------------------------------|
...Now I'm torn... now I'm torn

D||------------------------------------------------------------------||-----|
A||o----------------------------------------------------------------o||-----|
F||--3-5--7-7-7-7-7-7-7-7--3-3-3-3-3-3-3-3--5-5-5-5-5-5-5-5-5-5-5-5--||-3-5-|
C||--3-5--7-7-7-7-7-7-7-7--3-3-3-3-3-3-3-3--5-5-5-5-5-5-5-5-5-5-5-5--||-3-5-|
G||o-1-3--5-5-5-5-5-5-5-5--1-1-1-1-1-1-1-1--3-3-3-3-3-3-3-3-3-3-3-3-o||-1-3-|
C||------------------------------------------------------------------||-----|
...I've been far awaay
-When I see your face"
	`

-Chorus-
D|----------------------------------------------------------------|
A|----------------------------------------------------------------|
F|-7-7-7-7-7-7-7-7--3-3-3-3-3-3-3-3--5-5-5-5-5-5-5-5-5-5-5-5--3-5-|
C|-7-7-7-7-7-7-7-7--3-3-3-3-3-3-3-3--5-5-5-5-5-5-5-5-5-5-5-5--3-5-|
G|-5-5-5-5-5-5-5-5--1-1-1-1-1-1-1-1--3-3-3-3-3-3-3-3-3-3-3-3--1-3-|
C|----------------------------------------------------------------|
"My Hearts Burst Into Fire...

D|----------------------------------------------------------------------------|
A|----------------------------------------------------------------------------|
F|-7-7-7-7-7-7-7-7--3-3-3-3-3-3-3-3--5-5-5-5-5-5-5-5-5-5-5-5------------------|
C|-7-7-7-7-7-7-7-7--3-3-3-3-3-3-3-3--5-5-5-5-5-5-5-5-5-5-5-5--7-7-7-7-7-7-7-7-|
G|-5-5-5-5-5-5-5-5--1-1-1-1-1-1-1-1--3-3-3-3-3-3-3-3-3-3-3-3--3-3-3-3-3-3-3-3-|
C|----------------------------------------------------------------------------|
...Hearts Burst Into Fire"


-Interlude-
Matt
D|-3~~~~~~~~~~~~~~~~~~~~~~~~~~~~~~~~~~~~~~~~~~~~~~~|
A|-6~~~~~~~~~~~~~~~~~~~~~~~~~~~~~~~~~~~~~~~~~~~~~~~|
F|-5~~~~~~~~~~~~~~~~~~~~~~~~~~~~~~~~~~~~~~~~~~~~~~~|
C|-3~~~~~~~~~~~~~~~~~~~~~~~~~~~~~~~~~~~~~~~~~~~~~~~|
G|-3~~~~~~~~~~~~~~~~~~~~~~~~~~~~~~~~~~~~~~~~~~~~~~~|
C|-3~~~~~~~~~~~~~~~~~~~~~~~~~~~~~~~~~~~~~~~~~~~~~~~|
Padge
D|-/13-12-----------------/13-12-------------------|
A|--------13---------------------13----------------|
F|-----------12-10-9-10~~-----------12-10-9-10~~~~-|
C|-------------------------------------------------|
G|-------------------------------------------------|
C|-------------------------------------------------|

Matt
D|---------------------------------------------------|
A|---------------------------------6-----------------|
F|-------------------------5-5-5-5-5-----------------|
C|-------------3-3-3-3-3-3-3-3-3-3-3-----------------|
G|-----3-3-3-3-3-3-3-3-3-3-3-3-3-3-3-----------------|
C|-3-3-3-3-3-3-3-3-3-3-3-3-3-3-3-3-3-----------------|
Padge
D|-/13-12-----------------/13-12---------------------|
A|--------13---------------------13------------------|
F|-----------12-10-9-10~~-----------12-10-9-12br-10~-|
C|---------------------------------------------------|
G|---------------------------------------------------|
C|---------------------------------------------------|

Matt & Padge
D|-------------------------------------------------------|
A|-6--6-6-6-6--6-5--5-5-5-5--5-6--6-6-6-6--6-5--5-5--5-6-|
F|-5--5-5-5-5--5-5--5-5-5-5--5-5--5-5-5-5--5-5--5-5--5-5-|
C|-3--3-3-3-3--3-3--3-3-3-3--3-3--3-3-3-3--3-3--3-3--3-3-|
G|-3--3-3-3-3--3-3--3-3-3-3--3-3--3-3-3-3--3-3--3-3--3-3-|
C|-3--3-3-3-3--3-3--3-3-3-3--3-3--3-3-3-3--3-3--3-3--3-3-|

Matt
D|----------------------------------------------------------------------||
A|-10--10-10-10-10--10-8--8-8-8-8--8-10--10-10-10-10--10--8--10--8--10-o||
F|-10--10-10-10-10--10-9--9-9-9-9--9-10--10-10-10-10--10--9--10--9--10--||
C|-0---0--0--0--0---0--0--0-0-0-0--0-0---0--0--0--0---0---0--0---0--0---||
G|-0---0--0--0--0---0--0--0-0-0-0--0-0---0--0--0--0---0---0--0---0--0--o||
C|-0---0--0--0--0---0--0--0-0-0-0--0-0---0--0--0--0---0---0--0---0--0---||
Padge
D|----------------------------------------------------------------------||
A|-6---6--6--6--6---6--5--5-5-5-5--5-6---6--6--6--6---6---5--6---5--6--o||
F|-5---5--5--5--5---5--5--5-5-5-5--5-5---5--5--5--5---5---5--5---5--5---||
C|-0---0--0--0--0---0--0--0-0-0-0--0-0---0--0--0--0---0---0--0---0--0---||
G|-0---0--0--0--0---0--0--0-0-0-0--0-0---0--0--0--0---0---0--0---0--0--o||
C|-0---0--0--0--0---0--0--0-0-0-0--0-0---0--0--0--0---0---0--0---0--0---||
...Mmmmhm remember me at all?

Matt & Padge
D|-------------------------------------------------------|
A|-6--6-6-6-6--6-5--5-5-5-5--5-6--6-6-6-6--6-5--5-5--5-6-|
F|-5--5-5-5-5--5-5--5-5-5-5--5-5--5-5-5-5--5-5--5-5--5-5-|
C|-3--3-3-3-3--3-3--3-3-3-3--3-3--3-3-3-3--3-3--3-3--3-3-|
G|-3--3-3-3-3--3-3--3-3-3-3--3-3--3-3-3-3--3-3--3-3--3-3-|
C|-3--3-3-3-3--3-3--3-3-3-3--3-3--3-3-3-3--3-3--3-3--3-3-|
...I'm leavin', I'm screamin'

Matt
D|----------------------------------------------------------------------||
A|-10--10-10-10-10--10-8--8-8-8-8--8-10--10-10-10-10--10--8--10--8--10-o||
F|-10--10-10-10-10--10-9--9-9-9-9--9-10--10-10-10-10--10--9--10--9--10--||
C|-0---0--0--0--0---0--0--0-0-0-0--0-0---0--0--0--0---0---0--0---0--0---||
G|-0---0--0--0--0---0--0--0-0-0-0--0-0---0--0--0--0---0---0--0---0--0--o||
C|-0---0--0--0--0---0--0--0-0-0-0--0-0---0--0--0--0---0---0--0---0--0---||
Padge
D|----------------------------------------------------------------------||
A|-6---6--6--6--6---6--5--5-5-5-5--5-6---6--6--6--6---6---5--6---5--6--o||
F|-5---5--5--5--5---5--5--5-5-5-5--5-5---5--5--5--5---5---5--5---5--5---||
C|-0---0--0--0--0---0--0--0-0-0-0--0-0---0--0--0--0---0---0--0---0--0---||
G|-0---0--0--0--0---0--0--0-0-0-0--0-0---0--0--0--0---0---0--0---0--0--o||
C|-0---0--0--0--0---0--0--0-0-0-0--0-0---0--0--0--0---0---0--0---0--0---||
...I'm dreamin'"

D|--------------------------------------------------|
A|-------3~~~~~~~~~~~~~~~~~~~~~~~~~~~~~~~~~~~~~~~~~~|
F|-3--5--2~~~~~~~~~~~~~~~~~~~~~~~~~~~~~~~~~~~~~~~~~~|
C|-3--5--0~~~~~~~~~~~~~~~~~~~~~~~~~~~~~~~~~~~~~~~~~~|
G|-1--3--0~~~~~~~~~~~~~~~~~~~~~~~~~~~~~~~~~~~~~~~~~~|
C|-------0~~~~~~~~~~~~~~~~~~~~~~~~~~~~~~~~~~~~~~~~~~|
Suggest correction
Creating personal tab
Creating personal tab
You can edit any tab online and save it as your Personal.

You can edit, replace or remove any tab part or add personal notes – all changes will be seen only by you.

Personal tabs can be accessed anytime from any device, even offline.
Learn more »
comments
print report bad tab
2 comments total.
+1 reply
SilverSpurs616 330 May 22, 2009 11:49 AM

Very nice! Good job :D 5

0 reply
Walkingd1sasT3R 10 Nov 18, 2009 01:44 PM

love this song and this tab Great job 5

guest
You may want to rate the tab now too:
select rating
Wanna post a correction for this tab? Suggest correction