Oops, an error
Loading. Please wait.

Her Voice Resides tab

version 4
version 4
4,700 views 6 this week
2 commentsread comments
1 2 3 4 5
x 7
add to favorites
×
Save as Personal and add changes to this tab that will be seen only by you. Learn more ›
×
You can save this tab as Personal to edit and correct it or add notes. All changes will be seen only by you. Learn more »
launch autoscroll
font size
0
reset
how to read this tab
guitar tuner
backing track
0:00
0:00
edit
Autoscroll
slow
fast
+/-
esc
set tempo
stop
HER VOICE RESIDES
- Bullet For My Valentine


tabbed by: Chris San Andres (shrimpthepimp112@yahoo.com0


Tuning: Drop C (C G C F A D)

Legend
. = palm mute
x\ = pickslide
h = hammer-on
p = pull-off
t = tap
* - pinch harmonic
b = bend

..and i think thats all the extra markings i put in there.


now, this is a really cool song, and one of my favorite songs on BFMV new albumb - The Poison.

the others just didnt really seem right, something i was just a little off. I think I 
all those mistakes.

Anyway, hope you enjoy it! :)

Intro

D|----------------------------------------------------------------|
A|----------------------------------------------------------------|
F|----------------------------------------------------------------|
C|----0----------------------7-5----------------------------------|
G|----0-0-0-0-0-0-0-0-0-0-0-----------7-8------8-7-8--12-10-12----|
C|----0-0-0-0-0-0-0-0-0-0-0------0--------0----8-7-8--12-10-12----|
        . . . . . . . . . .      .        .


D---------------------------------------------------------------|
A---------------------------------------------------------------|
F---------------------------------------------------------------|
C---------------------------7-5-----------8-----10-------x\-----|
G------0-0-0-0-0-0-0-0-0-0---------7-8----8-----10-------x\-----|
C------0-0-0-0-0-0-0-0-0-0------0---------8-----10-------x\-----|
       . . . . . . . . . .      .                     pickslide

Verse

D---------------------------------------------------------|
A---------------------------------------------------------|
F---------------------------------------------------------|
C----0---------------------0-------------7-7-5-5-8-5-5----|
G----0-----------0-0-7-8-7-0------------------------------|
C----0-0-0-0-0-0-0-0-------0-0-0-0-0-0--------------------|
       . . . . .             . . . . .

D---------------------------------------------------------|
A---------------------------------------------------------|
F----------------------------------------10-10-9-9-12-9---|
C----0---------------------0------------------------------|
G----0-----------0-0-7-8-7-0------------------------------|
C----0-0-0-0-0-0-0-0-------0-0-0-0-0-0--------------------|
       . . . . .             . . . . .

Chorus

D------------------------------------------------------------|
A------------------------------------------------------------|
F----3-3-3--5-5-5--2-2-2--9-10-----3-3-3--5-5-5--------------|
C----3-3-3--5-5-5--2-2-2--9-10-----3-3-3--5-5-5---x\---------|
G----1-1-1--3-3-3--0-0-0--7- 8-----1-1-1--3-3-3---x\---------|
C-------------------------------------------------x\---------|


D--------------------------------------------------------------------|
A--------------------------------------------------------------------|
F----3-3-3--5-5-5--2-2-2--9-10-----3-3-3--5-5-5---7h8p7h8p7h8p7h8----|
C----3-3-3--5-5-5--2-2-2--9-10-----3-3-3--5-5-5----------------------|
G----1-1-1--3-3-3--0-0-0--7- 8-----1-1-1--3-3-3----------------------|
C--------------------------------------------------------------------|

Part after chorus

D-------------------------------------|
A-------------------------------------|
F-------------------------------------|
C-------------------------------------|
G-------------------------------5*----|
C----0-0-0-0-0-0-0-0-0-0-0-0-0--------|
     . . . . . . . . . . . . .

D|-----------------------------------------------------------------|
A|-----------------------------------------------------------------|
F|-----------------------------------------------------------------|
C|----0----------------------7-5-----------------------------------|
G|----0-0-0-0-0-0-0-0-0-0-0-----------7-8-------8-7-8--12-10-12----|
C|----0-0-0-0-0-0-0-0-0-0-0------0---------0----8-7-8--12-10-12----|
        . . . . . . . . . .      .         .

D-------------------------------------------------------------------|
A-------------------------------------------------------------------|
F-------------------------------------------------------------------|
C----------------------------------7-5------------------------------|
G----0-0--0-0--0-0--0-0--0-0--0-0---------7-8-----8-7-8--12-10-12---|
C----0-0--0-0--0-0--0-0--0-0--0-0------0------0---8-7-8--12-10-12---|
     . .  . .  . .  . .  . .  . .      .      .

D-------------------------------------------------------------------------|
A-------------------------------------------------------------------------|
F-------------------------------------------------------------------------|
C----------------------------------7-5------------8--10----------5--------|
G----0-0--0-0--0-0--0-0--0-0--0-0---------7-8-----8--10--7-5-7-8---8-7-5--|
C----0-0--0-0--0-0--0-0--0-0--0-0------0-------0--8--10-------------------|
     . .  . .  . .  . .  . .  . .      .       .         ( first time only)

Verse 2

D---------------------------------------------------------|
A---------------------------------------------------------|
F---------------------------------------------------------|
C----0---------------------0-------------7-7-5-5-8-5-5----|
G----0-----------0-0-7-8-7-0------------------------------|
C----0-0-0-0-0-0-0-0-------0-0-0-0-0-0--------------------|
       . . . . .             . . . . .

D----------------------------------------------------------------|
A----------------------------------------------------------------|
F----------------------------------------10-10-9-9-12-9----------|
C----0---------------------0-------------------------------------|
G----0-----------0-0-7-8-7-0-------------------------------------|
C----0-0-0-0-0-0-0-0-------0-0-0-0-0-0---------------------------|
       . . . . .             . . . . .

Chorus

D-------------------------------------------------------|
A-------------------------------------------------------|
F----3-3-3--5-5-5--2-2-2--9-10-----3-3-3--5-5-5---------|
C----3-3-3--5-5-5--2-2-2--9-10-----3-3-3--5-5-5---x\----|
G----1-1-1--3-3-3--0-0-0--7- 8-----1-1-1--3-3-3---x\----|
C-------------------------------------------------x\----|


D--------------------------------------------------------------------|
A--------------------------------------------------------------------|
F----3-3-3--5-5-5--2-2-2--9-10-----3-3-3--5-5-5---7h8p7h8p7h8p7h8----|
C----3-3-3--5-5-5--2-2-2--9-10-----3-3-3--5-5-5----------------------|
G----1-1-1--3-3-3--0-0-0--7- 8-----1-1-1--3-3-3----------------------|
C--------------------------------------------------------------------|

Part after chorus

D-------------------------------------|
A-------------------------------------|
F-------------------------------------|
C-------------------------------------|
G-------------------------------5*----|
C----0-0-0-0-0-0-0-0-0-0-0-0-0--------|
     . . . . . . . . . . . . .

D|-----------------------------------------------------------------|
A|-----------------------------------------------------------------|
F|-----------------------------------------------------------------|
C|----0----------------------7-5-----------------------------------|
G|----0-0-0-0-0-0-0-0-0-0-0-----------7-8-------8-7-8--12-10-12----|
C|----0-0-0-0-0-0-0-0-0-0-0------0---------0----8-7-8--12-10-12----|
        . . . . . . . . . .      .         .

D-------------------------------------------------------------------|
A-------------------------------------------------------------------|
F-------------------------------------------------------------------|
C----------------------------------7-5------------------------------|
G----0-0--0-0--0-0--0-0--0-0--0-0---------7-8-----8-7-8--12-10-12---|
C----0-0--0-0--0-0--0-0--0-0--0-0------0------0---8-7-8--12-10-12---|
     . .  . .  . .  . .  . .  . .      .      .

D----------------------------------------------------------|
A----------------------------------------------------------|
F----------------------------------------------------------|
C----------------------------------7-5------------8--10----|
G----0-0--0-0--0-0--0-0--0-0--0-0---------7-8-----8--10----|
C----0-0--0-0--0-0--0-0--0-0--0-0------0-------0--8--10----|
     . .  . .  . .  . .  . .  . .      .       .

Bridge
[use a phaser-type thing]
D----------------------------|
A----------------------------|
F----15-14----17-15-14-------|
C----------15----------------|
G----------------------------|
C----------------------------|


then..


Guitar 1
D------------------------------------------------------------|
A------------------------------------------------------------|
F-----0-2----------0-2----------0-2--------------------------|
C---------5-0-3-5------5-0-3-5------5-0-3-5---8-7-5-7-5------|
G-------------------------------------------------------8----|
C------------------------------------------------------------|


Guitar 2
D----------------------------------------------------------------|
A----------------------------------------------------------------|
F----------------------------------------------------------------|
C---------------------------------------------------8-----10-----|
G-------0-0-----------0-0----------0-0--------------8-----10-----|
C-------0-0-----------0-0----------0-0--------------8-----10-----|
        . .           . .          . .

D-----------------------------------------------------|
A-----------------------------------------------------|
F-----------------------------------------------------|
C-----------------------------------------------0-----|  x 2
G-------0-0-----------0-0----------0-0----------0-----|
C-------0-0-----------0-0----------0-0----------0-----|
        . .           . .          . .          .

guitar solo

D-----------------------------------------------------------------|
A-----------------------------------------------------------------|
F--------------------------------------------------7-9-10--\14----|
C-------------------------------------------7-8-10----------------|
G----7-7-7-7-7-8-8-8-8-8-7-7-7-7-7---7-8-10-----------------------|
C-----------------------------------------------------------------|
     . . . . . . . . . . . . . . .

D--------------------------------------------------|
A--------------------------------------------------|
F----14p12p10-----10h12p10h12p10-9h10p9h10p9-7-----|
C-------------12-----------------------------------|
G--------------------------------------------------|
C--------------------------------------------------|

D--t17h13h10-t17h13h10-t17h13h10--t15h12h8-t15h12h8-t15h12h8---|
A--------------------------------------------------------------|
F--------------------------------------------------------------|
C--------------------------------------------------------------|
G--------------------------------------------------------------|
C--------------------------------------------------------------|


D--t13h9h6-t13h9h6-t13h9h6------------------------------|
A-----------------------------10-10-9-9-12-12-9-9-------|
F-------------------------------------------------------|
C-------------------------------------------------------|
G-------------------------------------------------------|
c-------------------------------------------------------|


D--------------------------------------------------------|
A-------------11-10--------------------------------------|
F----10-9-----------9---10-9---7---10-9-12-9-10-9--------|
C---------7------------------7-------------------10------|
G--------------------------------------------------------|
C--------------------------------------------------------|


D--t17h13h10-t17h13h10-t17h13h10---t18h13h10-t18h13h10-t18h13h10-|
A----------------------------------------------------------------|
F----------------------------------------------------------------|
C----------------------------------------------------------------|
G----------------------------------------------------------------|
C----------------------------------------------------------------|


D--t20h13h10-t20h13h10-t20h13h10-t20h13h10---------------------|
A--------------------------------------------------------------|
F--------------------------------------------10-10-9-9-12-10---|
C--------------------------------------------------------------|
G--------------------------------------------------------------|
C--------------------------------------------------------------|

Chorus

D-------------------------------------------------------|
A-------------------------------------------------------|
F----3-3-3--5-5-5--2-2-2--9-10-----3-3-3--5-5-5---------|
C----3-3-3--5-5-5--2-2-2--9-10-----3-3-3--5-5-5---x\----|
G----1-1-1--3-3-3--0-0-0--7- 8-----1-1-1--3-3-3---x\----|
C-------------------------------------------------x\----|


D--------------------------------------------------------------------|
A--------------------------------------------------------------------|
F----3-3-3--5-5-5--2-2-2--9-10-----3-3-3--5-5-5---7h8p7h8p7h8p7h8----|
C----3-3-3--5-5-5--2-2-2--9-10-----3-3-3--5-5-5----------------------|
G----1-1-1--3-3-3--0-0-0--7- 8-----1-1-1--3-3-3----------------------|
C--------------------------------------------------------------------|

Part after chorus

D-------------------------------------|
A-------------------------------------|
F-------------------------------------|
C-------------------------------------|
G-------------------------------5*----|
C----0-0-0-0-0-0-0-0-0-0-0-0-0--------|
     . . . . . . . . . . . . .

D|-----------------------------------------------------------------|
A|-----------------------------------------------------------------|
F|-----------------------------------------------------------------|
C|----0----------------------7-5-----------------------------------|
G|----0-0-0-0-0-0-0-0-0-0-0-----------7-8-------8-7-8--12-10-12----|
C|----0-0-0-0-0-0-0-0-0-0-0------0---------0----8-7-8--12-10-12----|
        . . . . . . . . . .      .         .

D-------------------------------------------------------------------|
A-------------------------------------------------------------------|
F-------------------------------------------------------------------|
C----------------------------------7-5------------------------------|
G----0-0--0-0--0-0--0-0--0-0--0-0---------7-8-----8-7-8--12-10-12---|
C----0-0--0-0--0-0--0-0--0-0--0-0------0------0---8-7-8--12-10-12---|
     . .  . .  . .  . .  . .  . .      .      .

D--------------------------------------------------------|
A--------------------------------------------------------|
F--------------------------------------------------------|
C----------------------------------7-5------------8--x\--|
G----0-0--0-0--0-0--0-0--0-0--0-0---------7-8-----8--x\--|
C----0-0--0-0--0-0--0-0--0-0--0-0------0-------0--8--x\--|
     . .  . .  . .  . .  . .  . .      .       .

Bridge
[again, with phaser-thingy]

guitar 1
D----------------------------|
A----------------------------|
F----15-14----17-15-14-------|
C----------15----------------|
G----------------------------|
C----------------------------|


D-----------------|
A-----------------|
F--14-14----------|
C--------15-14b---|
G-----------------|
C-----------------|


guitar 2
D----------------------------------------------|
A----------------------------------------------|
F----------------------------------------------|
C----------------------------------------8-----|
G----0-0--0-0--0-0--0-0------0--0-0--0---8-----|
C----0-0--0-0--0-0--0-0------0--0-0--0---8-----|
     . .  . .  . .  . .      .  . .  .

Outro
D--------------------------------|
A--------------------------------|
G--------------------------------|
C--------------------------------|
G--0-0--0-0--0-0--0-0--0-0-------|
C--0-0--0-0--0-0--0-0--0-0---12*-|
   . .  . .  . .  . .  . .

            
            
Suggest correction
Creating personal tab
Creating personal tab
You can edit any tab online and save it as your Personal.

You can edit, replace or remove any tab part or add personal notes – all changes will be seen only by you.

Personal tabs can be accessed anytime from any device, even offline.
Learn more »
comments
print report bad tab
2 comments total.
0 reply
BJHman 61 May 06, 2007 04:50 PM

This tab sucks so freakin bad i dont know how it has 5 stars

-1 reply
ShrimpthePimp 785 Jul 07, 2007 12:49 PM

thanks Wes, i love you too :)

guest
You may want to rate the tab now too:
select rating
Wanna post a correction for this tab? Suggest correction