Oops, an error
Loading. Please wait.

Her Voice Resides tab

version 5
version 5
4,056 views 6 this week
3 commentsread comments
1 2 3 4 5
x 3
add to favorites
×
Save as Personal and add changes to this tab that will be seen only by you. Learn more ›
×
You can save this tab as Personal to edit and correct it or add notes. All changes will be seen only by you. Learn more »
launch autoscroll
font size
0
reset
how to read this tab
guitar tuner
backing track
0:00
0:00
edit
Autoscroll
slow
fast
+/-
esc
set tempo
stop
Author
Her Voice Resides- Bullet for my Valentine

Transcribed by Cory

Hey, this is my first tab. I'm pretty sure its 99% correct. If you any 
e-Mail me at cjr2495@yahoo.com. Rate and comment please!

pm-palm mute
*-pinch harmonic
~-vibrato
()-tied note
h-hammer on
p-pull off
/-slide up
\-slide down
t-tap

Drop C

 Intro                                                           x3
d||---|-------------------------------------------------------------/
A||---|-------------------------------------------------------------/
F||---|o------------------------2-0------------------------------o--/
C||-0-|o--------------------------------2-3----------------------o--/
G||-0-|-----------------------------------------0-1-0-1--5-3-5------/
C||-0-|-0-0-0-0-0-0-0-0-0-0-0-0-----0-0-----0-0---------------------/
        pm---------------------     ---     ------------------------/

d|-----------------------------------------------------------/
A|-----------------------------------------------------------/
F|-------------------------2-0-------------3---(3)-5---(5)---/
C|---------------------------------2-3-----3---(3)-5---(5)---/
G|-----------------------------------------1---(1)-3---(3)---/
C|-0-0-0-0-0-0-0-0-0-0-0-0-----0-0-----0-0-------------------/
   pm---------------------     ---     ----------------------/

 Verse
d|--------------------------------------------------/
A|--------------------------------------------------/
F|o--------------------------------2-2-0-0-3-0-0-o--/
C|o0----------0-----2-3-2-0----------------------o--/
G|-0----------0-----------0-------------------------/
C|-0-00-0-0-0-0-0-0-------0-00-0-0------------------/
    pm------   ---         -------------------------/

d|--------------------------------1-1-0-0-3-0-0------/
A|---------------------------------------------------/
F|---------------------------------------------------/
C|0----------0-----2-3-2-0---------------------------/
G|0----------0-----------0---------------------------/
C|0-00-0-0-0-0-0-0-------0-00-0-0--------------------/
    pm------   ---         --------------------------/
                                   harmony
                                 |5-5-3-3-6-3-3--|
                                 |---------------|
                                 |---------------|
                                 |---------------|
                                 |---------------|
                                 |---------------|

 chorus
d/---------------------------------------------------------------------------------/
a/---------------------------------------------------------------------------------/
f/3-3-5-5-2-2-9-10-3-3-5-5-------------3-3-5-5-2-2-9-10-3-3-5-5--7h8p7h8p7h8p7h8p7-/
c/3-3-5-5-2-2-9-10-3-3-5-5-pickscrape--3-3-5-5-2-2-9-10-3-3-5-5--------------------/
g/1-1-3-3-0-0-7-8--1-1-3-3-pickscrape--1-1-3-3-0-0-7-8--1-1-3-3--------------------/
c/-------------------------pickscrape----------------------------------------------/

 fill
d/-------------------------------------------------------------------/
a/-------------------------------------------------------------------/
f/-------------------------------2-0---------------------------------/
c/---------------------------------------2-3-------------------------/
g/--------0---------[2]~-------------------------0-1-0-1--5-3-5------/
c/0-0-0-0-0-0-0-0-0------0-0-0-0-----0-0-----0-0---------------------/
  pm-----   -------      -------     ---     ------------------------/

d/-----------------------------------------------------------/
a/-----------------------------------------------------------/
f/------------------------2-0--------------------------------/
c/--------------------------------2-3------------------------/
g/----------------------------------------0-1-0-1--5-3-5-----/
c/0-0-0-0-0-0-0-0-0-0-0-0-----0-0-----0-0--------------------/
  pm---------------------     ---     -----------------------/

d/----------------------------------------------------------/
a/----------------------------------------------------------/
f/----------------------2-0---------------------------------/
c/-----------------------------2-3--------------------------/
g/-------------------------------------0-1-0-1--5-3-[5]-----/
c/0-0---0-0---0-0---0-0----0-0-----0-0----------------------/
 pm--------------------    ---     -------------------------/

d/----------------------------------------------------------/
a/----------------------------------------------------------/
f/----------------------2-0-------------3---(3)-5---(5)-----/
c/------------------------------2-3-----3---(3)-5---(5)-----/
g/--------------------------------------1---(1)-3---(3)-----/
c/0-0---0-0---0-0---0-0-----0-0-----0-0---------------------/
  pm-------------------     ---     ------------------------/

 only play this on first fill
d/-----------------/
a/-----------------/
f/--------0--------/
c/2-0-2-3---3-2-0--/
g/--------------0--/
c/--------------0--/

verse
chorus
fill

 breakdown
d/----------------------------------/
a/----------------------------------/
f/10---10-9-0-12-0-12---12-9-0-10-0-/
c/----------------------------------/
g/----------------------------------/
c/----------------------------------/

d/----------------------------------/
a/----------------------------------/
f/10---10-9-0-12-0-12---12-9-0-10-0-/
c/----------------------------------/
g/----------------------------------/
c/----------------------------------/

d/----------------------------------/
a/----------------------------------/
f/-----10-9-0-12-0-12---12-9-0-10-0-/
c/8~--------------------------------/
g/----------------------------------/
c/----------------------------------/

d/----------------------------------/
a/----------------------------------/
f/10---10-9-0-12-0-12---12-9-0-10-0-/
c/----------------------------------/
g/----------------------------------/
c/----------------------------------/
1st time thorugh use a phaser
then repeat with dist.

 interlude
 gtr. 1
d/--------------------------------------------------------------/
a/--------------------------------------------------------------/
f/-----2--------------2--------------2--------------------------/
c/-/5----5-0-3-5--/5----5-0-3-5--/5----5-0-3-5--/8--7-5-7--5----/
g/-----------------------------------------------------------8--/
c/--------------------------------------------------------------/

 gtr.2   this part is played the 1st,3rd,and 4th
d/-----------------------------------------------------------------------/
a/-----------------------------------------------------------------------/
f/----------------------------------------------5-5---7-7----------------/
c/----------------------------------------------5-5---7-7----------------/       x4
g/0-0------------0-0-------------0-0----------0-3-3---5-5----------------/
c/0-0------------0-0-------------0-0----------0--------------------------/
  pm---------------------------------------------------------------------/

 gtr.2(cont.)   this part is played 2nd
d/-------------------------------------------------/
a/-------------------------------------------------/
f/-------------------------------------------------/
c/----------------------------------------------0--/
g/0-0------------0-0-------------0-0----------0-0--/
c/0-0------------0-0-------------0-0----------0-0--/
  pm-----------------------------------------------/            /\hit palm muted
                                                 then lift palm

 solo (padge)
d/-----------------------------------------------------------------------------------/
a/-----------------------------------------------------------------------------------/
f/---------------------------------------------------------------7-8-10/14~-(14)-----/
c/--------------------------------------------------------7-8-10---------------------/
g/7-7-7-7-7-7-7-7-8-8-8-8-8-8-8-8-7-7-7-7-7-7-7-7--7-8-10----------------------------/
c/-----------------------------------------------------------------------------------/
  pm---------------------------------------------------------------------------------/

d/-----------------------------------------------p10h13t17-x4-p8h12t15-x4-p6h10t13-x4-/15-(15)\-/
a/----------------------------------------------------------------------------------------------/
f/14p12p8----------10h12p10h12p10-9h10p9h10p9-7~------------------------------------------------/
c/--------12~-(12)------------------------------------------------------------------------------/
g/----------------------------------------------------------------------------------------------/
c/----------------------------------------------------------------------------------------------/

 solo (matt)
d/-----------------------------------------------t17p13p10h13-x4-t18p13p10h13-x4-t20p13p10h13-x4/
a/---------/11-10-------------------------------------------------------------------------------/
f/-/10-9----------9--10-9---7-10-9-10-12-10-9---------------------------------------------------/
c/-------8----------------7-------------------10------------------------------------------------/
g/----------------------------------------------------------------------------------------------/
c/----------------------------------------------------------------------------------------------/

 harmony
 gtr.1
d/1-1-0-0-3-0-0-/
a/--------------/
f/--------------/
c/--------------/
g/--------------/
c/--------------/

 gtr.2
d/5-5-3-3-6-3-3-/
a/--------------/
f/--------------/
c/--------------/
g/--------------/
c/--------------/

chorus
fill w/ different end

 different end to 3rd fill
d/-----------------------------/
a/-----------------------------/
f/--------5---(5)--------------/
c/2-3-2-3-5---(5)--pickscrape--/
g/0-1-0-1-3---(3)--pickscrape--/
c/-----------------pickscrape--/

breakdown

gtr.2                                                                          x4
d/--------------------------------------------------------------------------/
a/--------------------------------------------------------------------------/
f/--------------------------------------------------------------------------/
c/0-0--0-0--0-0--0-0--------------------------------------0-0-0-8-----(8)---/
g/0-0--0-0--0-0--0-0--------------------------------------0-0-0-8-----(8)---/
c/0-0--0-0--0-0--0-0--------------------------------------0-0-0-8-----(8)---/
  pm------------------------------------------------------------------------/

d/--------------------------/
a/--------------------------/
f/--------------------------/
c/0-0--0-0--0-0--0-0---(0)--/  x3
g/0-0--0-0--0-0--0-0---(0)--/
c/0-0--0-0--0-0--0-0---(0)--/

d/------------------------/
a/------------------------/
f/------------------------/
c/-\-0-0--0-0--0-[3]~-(3)-/
g/-\-0-0--0-0--0----------/
c/-\-0-0--0-0--0----------/

            
            
Suggest correction
Creating personal tab
Creating personal tab
You can edit any tab online and save it as your Personal.

You can edit, replace or remove any tab part or add personal notes – all changes will be seen only by you.

Personal tabs can be accessed anytime from any device, even offline.
Learn more »
Give kudos to tab author, rate the tab!
1 2 3 4 5
comments
print report bad tab
3 comments total.
0 reply
Madaxeman1618 30 Jul 07, 2007 01:41 AM

Solo coulda bin betta but on the whole great tab.

I defo impressed that ur the only person ive seen so far 2 get the pinch harmonic in the rite place!

-1 reply
coryklok 100 Jul 07, 2007 07:43 AM

thanks man
no one could get those right so i was like w/e ill do my own tab

0 reply
sreknawllaru 31 Jun 03, 2008 07:11 PM

hey no one on ug seems to have the solo 100% if anyone could post the perfect solo it would be appriceate it

guest
You may want to rate the tab now too:
select rating
Wanna post a correction for this tab? Suggest correction