Oops, an error
Loading. Please wait.

Her Voice Resides tab

version 7
version 7
21,867 views 6 this week
10 commentsread comments
1 2 3 4 5
x 14
add to favorites
×
Save as Personal and add changes to this tab that will be seen only by you. Learn more ›
×
You can save this tab as Personal to edit and correct it or add notes. All changes will be seen only by you. Learn more »
launch autoscroll
font size
0
reset
how to read this tab
guitar tuner
backing track
0:00
0:00
edit
Autoscroll
slow
fast
+/-
esc
set tempo
stop
Her Voice Resides
Bullet For My Valentine
The Poison
Drop C- CGCFAD


-Intro-
Matt & Padge
D|-----------------------------------------------------------|
A|-----------------------------------------------------------|
F|-----------------------------------------------------------|
C|-------------------------7---5-----2---3-------------------|
G|---------------------------------------------1-0-1~-5-3-5~-|
C|-0-0-0-0-0-0-0-0-0-0-0-0---0---0-0---0---0-0---------------|
   - - - - - - - - - - - -   -   - -   -   - - - -    - -
"AHHHHHHHHHHHHHHHHHHHHHHHHHHHHHHHHHHHHHHHHHH!!!"

Matt
D|-----------------------------------------------------------|
A|-----------------------------------------------------------|
F|-----------------------------------------------------------|
C|-------------------------7---5-----2---3------------3-2-3~-|
G|---------------------------------------------1-0-1~--------|
C|-0-0-0-0-0-0-0-0-0-0-0-0---0---0-0---0---0-0---------------|
   - - - - - - - - - - - -   -   - -   -   - - - -    - -
Padge
D|-----------------------------------------------------------|
A|-----------------------------------------------------------|
F|-----------------------------------------------------------|
C|-------------------------7---5-----2---3-------------------|
G|---------------------------------------------1-0-1~-5-3-5~-|
C|-0-0-0-0-0-0-0-0-0-0-0-0---0---0-0---0---0-0---------------|
   - - - - - - - - - - - -   -   - -   -   - - - -    - -

Matt
D|-----------------------------------------------------------|
A|-----------------------------------------------------------|
F|-----------------------------------------------------------|
C|-------------------------3---2----------------------3-2-3~-|
G|-----------------------------------3---5-----1-0-1~--------|
C|-0-0-0-0-0-0-0-0-0-0-0-0---0---0-0---0---0-0---------------|
   - - - - - - - - - - - -   -   - -   -   - - - -    - -
Padge
D|-----------------------------------------------------------|
A|-----------------------------------------------------------|
F|-----------------------------------------------------------|
C|-------------------------7---5-----2---3-------------------|
G|---------------------------------------------1-0-1~-5-3-5~-|
C|-0-0-0-0-0-0-0-0-0-0-0-0---0---0-0---0---0-0---------------|
   - - - - - - - - - - - -   -   - -   -   - - - -    - -

Matt
D|-----------------------------------------|
A|-----------------------------------------|
F|-----------------------------------------|
C|-------------------------3---2-----------|
G|-----------------------------------3---5-|
C|-0-0-0-0-0-0-0-0-0-0-0-0---0---0-0---0---|
   - - - - - - - - - - - -   -   - -   -
Padge
D|-----------------------------------------|
A|-----------------------------------------|
F|-----------------------------------------|
C|-------------------------7---5-----2---3-|
G|-----------------------------------------|
C|-0-0-0-0-0-0-0-0-0-0-0-0---0---0-0---0---|
   - - - - - - - - - - - -   -   - -   -

Matt & Padge
D|--------------------------------------------|
A|--------------------------------------------|
F|-3~~~~~~~~~~~~~~~~~~-5~~~~~~~~~~~~~~~-------|
C|-3~~~~~~~~~~~~~~~~~~-5~~~~~~~~~~~~~~~-------|
G|-1~~~~~~~~~~~~~~~~~~-3~~~~~~~~~~~~~~~-x\\\\-|
C|--------------------------------------x\\\\-|


-Verse-
D||-------------------------------------------------------------|
A||o------------------------------------------------------------|
F||-------------------------------------------------------------|
C||---------------------------------------------7-7-5-5-8-8-5-5-|
G||o------------------------------------------------------------|
C||--0-0-0-00-0-0-0-0-0-00-0-0-8-7-0-0-0-00-0-0-----------------|
       - - -- - -   - - -- - -       - - -- - -
-"OUR TIME HAS ENDED!! I feel IT'S ONLY JUST BEGUN!!
-MY EARS ARE BLEEDING!! Her Voice Resides INSIDE MY HEAD!!

Matt
D|-----------------------------------------------------------------||
A|--------------------------------------------10-10-8-8-11-11-8-8-o||
F|-----------------------------------------------------------------||
C|-----------------------------------------------------------------||
G|----------------------------------------------------------------o||
C|-0-0-0-00-0-0-0-0-0-00-0-0-8-7-0-0-0-00-0-0----------------------||
     - - -- - -   - - -- - -       - - -- - -
Padge
D|-----------------------------------------------------------------||
A|----------------------------------------------------------------o||
F|--------------------------------------------10-10-9-9-12-12-9-9--||
C|-----------------------------------------------------------------||
G|----------------------------------------------------------------o||
C|-0-0-0-00-0-0-0-0-0-00-0-0-8-7-0-0-0-00-0-0----------------------||
     - - -- - -   - - -- - -       - - -- - -
...AND I'M FRUSTRATED! I CAN'T BELIEVE YOU'RE NOT THE ONE!!
...AND NOW I'M CHOKING!! RELEASE THIS NOOSE AROUND MY NECK!!"


-Pre Chorus-
Matt
D|---------------------------------------------|
A|---------------------------------------------|
F|---------------------------------------------|
C|-3--3--5--5--2--2-9-10--3--3--5--5-----------|
G|-1--1--3--3--0--0-7--8--1--1--3--3-x\\\\\\\\-|
C|-----------------------------------x\\\\\\\\-|
Padge
D|---------------------------------------------|
A|---------------------------------------------|
F|-----------------------10-10-12-12-----------|
C|-8--8-10-10--7--7-9-10-x--x--x--x------------|
G|-8--8-10-10--7--7-7--8-8--8--10-10-x\\\\\\\\-|
C|-8--8-10-10--7--7------------------x\\\\\\\\-|
"Will I just fall to pieces? Or am I alright?

Matt
D|------------------------------------------------------|
A|------------------------------------------------------|
F|------------------------------------7h8p7h8p7h8p7h8p7-|
C|-3--3--5--5--2--2--9-10--3--3--5--5-------------------|
G|-1--1--3--3--0--0--7--8--1--1--3--3-------------------|
C|------------------------------------------------------|
Padge
D|------------------------------------------------------|
A|------------------------------------------------------|
F|------------------------10-10-12-12-7h8p7h8p7h8p7h8p7-|
C|-8--8-10-10--7--7-9-10--x--x--x--x--------------------|
G|-8--8-10-10--7--7-7--8--8--8--10-10-------------------|
C|-8--8-10-10--7--7-------------------------------------|
...To iron out my creases YOU MUST LACERATE ME 'TIL THERE GONE!!"


-Chorus-
Matt & Padge
D|-----------------------------------------------------------------|
A|-----------------------------------------------------------------|
F|-----------------------------------------------------------------|
C|-------------------------------7---5-----2---3-------------------|
G|-------------------2*~-----------------------------1-0-1~-5-3-5~-|
C|-0-0-0-0-0-0-0-0-0-----0-0-0-0---0---0-0---0---0-0---------------|
   - - - -   - - - -     - - - -   -   - -   -   - - - -    - -
                         "THESE ARE MY FINAL WORDS TO YOU!

Matt
D|-----------------------------------------------------------|
A|-----------------------------------------------------------|
F|-----------------------------------------------------------|
C|-------------------------7---5-----2---3------------3-2-3~-|
G|---------------------------------------------1-0-1~--------|
C|-0-0-0-0-0-0-0-0-0-0-0-0---0---0-0---0---0-0---------------|
   - - - - - - - - - - - -   -   - -   -   - - - -    - -
Padge
D|-----------------------------------------------------------|
A|-----------------------------------------------------------|
F|-----------------------------------------------------------|
C|-------------------------7---5-----2---3-------------------|
G|---------------------------------------------1-0-1~-5-3-5~-|
C|-0-0-0-0-0-0-0-0-0-0-0-0---0---0-0---0---0-0---------------|
   - - - - - - - - - - - -   -   - -   -   - - - -    - -
                 ...I KNOW YOU'RE LISTENING, CAN YOU HEAR ME!!!

Matt
D|------------------------------------------------------|
A|------------------------------------------------------|
F|------------------------------------------------------|
C|--------------------3---2----------------------3-2-3~-|
G|-0-0--0-0--0-0--0-0-----------3---5-----1-0-1~--------|
C|-0-0--0-0--0-0--0-0---0---0-0---0---0-0---------------|
   - -  - -  - -  - -   -   - -   -   - - - -    - -
Padge
D|------------------------------------------------------|
A|------------------------------------------------------|
F|------------------------------------------------------|
C|--------------------7---5-----2---3-------------------|
G|-0-0--0-0--0-0--0-0---------------------1-0-1~-5-3-5~-|
C|-0-0--0-0--0-0--0-0---0---0-0---0---0-0---------------|
   - -  - -  - -  - -   -   - -   -   - - - -    - -
                  ...THE TIME HAS COME TO SAY GOODBYE!!

Matt
D|-----------------------------------------------------------------|
A|-----------------------------------------------------------------|
F|-------------------------------------3~~~~~~~~~~~~-5~~~~~~~~~~~~-|
C|--------------------3---2------------3~~~~~~~~~~~~-5~~~~~~~~~~~~-|
G|-0-0--0-0--0-0--0-0-----------3---5--1~~~~~~~~~~~~-3~~~~~~~~~~~~-|
C|-0-0--0-0--0-0--0-0---0---0-0---0--------------------------------|
   - -  - -  - -  - -   -   - -   -
Padge
D|-----------------------------------------------------------------|
A|-----------------------------------------------------------------|
F|-------------------------------------3~~~~~~~~~~~~-5~~~~~~~~~~~~-|
C|--------------------7---5-----2---3--3~~~~~~~~~~~~-5~~~~~~~~~~~~-|
G|-0-0--0-0--0-0--0-0------------------1~~~~~~~~~~~~-3~~~~~~~~~~~~-|
C|-0-0--0-0--0-0--0-0---0---0-0---0--------------------------------|
   - -  - -  - -  - -   -   - -   -
                  ...THESE ARE MY FINAL WORDS...To you"


Matt
D|----------------|
A|----------------|
F|----------------|
C|-5p3h5-7h8--7-5-|
G|----------------|
C|----------------|
Padge
D|----------------|
A|----------------|
F|----------------|
C|----------------|
G|-7p5h7-8h10-8-7-|
C|----------------|


-Verse-
Matt & Padge
D|------------------------------------------------------------|
A|------------------------------------------------------------|
F|------------------------------------------------------------|
C|--------------------------------------------7-7-5-5-8-8-5-5-|
G|------------------------------------------------------------|
C|-0-0-0-00-0-0-0-0-0-00-0-0-8-7-0-0-0-00-0-0-----------------|
     - - -- - -   - - -- - -       - - -- - -
"THE CLOCK IS TICKING!! My heart is BURSTING THROUGH MY CHEST!

Matt
D|----------------------------------------------------------------|
A|--------------------------------------------10-10-8-8-11-11-8-8-|
F|----------------------------------------------------------------|
C|----------------------------------------------------------------|
G|----------------------------------------------------------------|
C|-0-0-0-00-0-0-0-0-0-00-0-0-8-7-0-0-0-00-0-0---------------------|
     - - -- - -   - - -- - -       - - -- - -
Padge
D|----------------------------------------------------------------|
A|----------------------------------------------------------------|
F|--------------------------------------------10-10-9-9-12-12-9-9-|
C|----------------------------------------------------------------|
G|----------------------------------------------------------------|
C|-0-0-0-00-0-0-0-0-0-00-0-0-8-7-0-0-0-00-0-0---------------------|
     - - -- - -   - - -- - -       - - -- - -
...AND NOW I'M CRYING!! THE TEARS ARE POURING OFF MY FACE!!

Matt
D|--------------------------------------------------------------|
A|--------------------------------------------------------------|
F|--------------------------------------------------------------|
C|--------------------------------------------------------------|
G|--------------------------------------------8-8-7-7-10-10-7-7-|
C|-0-0-0-00-0-0-0-0-0-00-0-0-8-7-0-0-0-00-0-0-------------------|
     - - -- - -   - - -- - -       - - -- - -
Padge
D|--------------------------------------------------------------|
A|--------------------------------------------------------------|
F|--------------------------------------------------------------|
C|--------------------------------------------7-7-5-5-8--8--5-5-|
G|--------------------------------------------------------------|
C|-0-0-0-00-0-0-0-0-0-00-0-0-8-7-0-0-0-00-0-0-------------------|
     - - -- - -   - - -- - -       - - -- - -
...THE CHAIR IS CREAKING!! Her Voice RESIDES INSIDE MY HEAD!!

Matt
D|----------------------------------------------------------------|
A|--------------------------------------------10-10-8-8-11-11-8-8-|
F|----------------------------------------------------------------|
C|----------------------------------------------------------------|
G|----------------------------------------------------------------|
C|-0-0-0-00-0-0-0-0-0-00-0-0-8-7-0-0-0-00-0-0---------------------|
     - - -- - -   - - -- - -       - - -- - -
Padge
D|----------------------------------------------------------------|
A|----------------------------------------------------------------|
F|--------------------------------------------10-10-9-9-12-12-9-9-|
C|----------------------------------------------------------------|
G|----------------------------------------------------------------|
C|-0-0-0-00-0-0-0-0-0-00-0-0-8-7-0-0-0-00-0-0---------------------|
     - - -- - -   - - -- - -       - - -- - -
...AND NOW IT'S OVER!! YOU PUT THIS NOOSE AROUND MY NECK!!"


-Pre Chorus-
Matt
D|---------------------------------------------|
A|---------------------------------------------|
F|---------------------------------------------|
C|-3--3--5--5--2--2-9-10--3--3--5--5-----------|
G|-1--1--3--3--0--0-7--8--1--1--3--3-x\\\\\\\\-|
C|-----------------------------------x\\\\\\\\-|
Padge
D|---------------------------------------------|
A|---------------------------------------------|
F|-----------------------10-10-12-12-----------|
C|-8--8-10-10--7--7-9-10-x--x--x--x------------|
G|-8--8-10-10--7--7-7--8-8--8--10-10-x\\\\\\\\-|
C|-8--8-10-10--7--7------------------x\\\\\\\\-|
"Will I just fall to pieces? Or am I alright?

Matt
D|------------------------------------------------------|
A|------------------------------------------------------|
F|------------------------------------7h8p7h8p7h8p7h8p7-|
C|-3--3--5--5--2--2--9-10--3--3--5--5-------------------|
G|-1--1--3--3--0--0--7--8--1--1--3--3-------------------|
C|------------------------------------------------------|
Padge
D|------------------------------------------------------|
A|------------------------------------------------------|
F|------------------------10-10-12-12-7h8p7h8p7h8p7h8p7-|
C|-8--8-10-10--7--7-9-10--x--x--x--x--------------------|
G|-8--8-10-10--7--7-7--8--8--8--10-10-------------------|
C|-8--8-10-10--7--7-------------------------------------|
...To iron out my creases YOU MUST LACERATE ME 'TIL THERE GONE!!"


-Chorus-
Matt & Padge
D|-----------------------------------------------------------------|
A|-----------------------------------------------------------------|
F|-----------------------------------------------------------------|
C|-------------------------------7---5-----2---3-------------------|
G|-------------------2*~-----------------------------1-0-1~-5-3-5~-|
C|-0-0-0-0-0-0-0-0-0-----0-0-0-0---0---0-0---0---0-0---------------|
   - - - -   - - - -     - - - -   -   - -   -   - - - -    - -
                         "THESE ARE MY FINAL WORDS TO YOU!

Matt
D|-----------------------------------------------------------|
A|-----------------------------------------------------------|
F|-----------------------------------------------------------|
C|-------------------------7---5-----2---3------------3-2-3~-|
G|---------------------------------------------1-0-1~--------|
C|-0-0-0-0-0-0-0-0-0-0-0-0---0---0-0---0---0-0---------------|
   - - - - - - - - - - - -   -   - -   -   - - - -    - -
Padge
D|-----------------------------------------------------------|
A|-----------------------------------------------------------|
F|-----------------------------------------------------------|
C|-------------------------7---5-----2---3-------------------|
G|---------------------------------------------1-0-1~-5-3-5~-|
C|-0-0-0-0-0-0-0-0-0-0-0-0---0---0-0---0---0-0---------------|
   - - - - - - - - - - - -   -   - -   -   - - - -    - -
                 ...I KNOW YOU'RE LISTENING, CAN YOU HEAR ME!!!

Matt
D|------------------------------------------------------|
A|------------------------------------------------------|
F|------------------------------------------------------|
C|--------------------3---2----------------------3-2-3~-|
G|-0-0--0-0--0-0--0-0-----------3---5-----1-0-1~--------|
C|-0-0--0-0--0-0--0-0---0---0-0---0---0-0---------------|
   - -  - -  - -  - -   -   - -   -   - - - -    - -
Padge
D|------------------------------------------------------|
A|------------------------------------------------------|
F|------------------------------------------------------|
C|--------------------7---5-----2---3-------------------|
G|-0-0--0-0--0-0--0-0---------------------1-0-1~-5-3-5~-|
C|-0-0--0-0--0-0--0-0---0---0-0---0---0-0---------------|
   - -  - -  - -  - -   -   - -   -   - - - -    - -
                  ...THE TIME HAS COME TO SAY GOODBYE!!

Matt
D|-----------------------------------------------------------------|
A|-----------------------------------------------------------------|
F|-------------------------------------3~~~~~~~~~~~~-5~~~~~~~~~~~~-|
C|--------------------3---2------------3~~~~~~~~~~~~-5~~~~~~~~~~~~-|
G|-0-0--0-0--0-0--0-0-----------3---5--1~~~~~~~~~~~~-3~~~~~~~~~~~~-|
C|-0-0--0-0--0-0--0-0---0---0-0---0--------------------------------|
   - -  - -  - -  - -   -   - -   -
Padge
D|-----------------------------------------------------------------|
A|-----------------------------------------------------------------|
F|-------------------------------------3~~~~~~~~~~~~-5~~~~~~~~~~~~-|
C|--------------------7---5-----2---3--3~~~~~~~~~~~~-5~~~~~~~~~~~~-|
G|-0-0--0-0--0-0--0-0------------------1~~~~~~~~~~~~-3~~~~~~~~~~~~-|
C|-0-0--0-0--0-0--0-0---0---0-0---0--------------------------------|
   - -  - -  - -  - -   -   - -   -
                  ...THESE ARE MY FINAL WORDS...To you"


-Breakdown-
Padge- Clean w/phaser
D|------------------------------------------------------------|
A|------------------------------------------------------------|
F|-10-10p9----12----12-12p9----10----10-10p9----12----12-12p9-|
C|------------------------------------------------------------|
G|---------10----10---------10----10---------10----10---------|
C|------------------------------------------------------------|
"Heaven...

D|------------------------------------------------------------|
A|------------------------------------------------------------|
F|-10-10p9----12----12-12p9----10----10-10p9----12----12-12p9-|
C|------------------------------------------------------------|
G|---------10----10---------10----10---------10----10---------|
C|------------------------------------------------------------|
...Where is my angel?

D|------------------------------------------------------|
A|------------------------------------------------------|
F|----10p9---12---12-12p9---10---10-10p9---12---12-12p9-|
C|-8~------8----8---------8----8---------8----8---------|
G|------------------------------------------------------|
C|------------------------------------------------------|
...I need her now...

Matt w/wah
D|------------------------------------------------------|
A|------------------------------------------------------|
F|------------------------------------------------------|
C|------------------------------------------------------|
G|-------------------------------------x\\\\\\\\\\\\\\\\|
C|-------------------------------------x\\\\\\\\\\\\\\\\|
Padge
D|------------------------------------------------------|
A|------------------------------------------------------|
F|----10p9---12---12-12p9---10---10-10p9---12---12-12p9-|
C|-8~------8----8---------8----8---------8----8---------|
G|------------------------------------------------------|
C|------------------------------------------------------|
...HOLDING ME!!!

Matt
D|-------------------------------------------------|
A|-------------------------------------------------|
F|-------------------------------------------------|
C|-7-7-7-7-7-7-7-7-7-7-7-7-7-7-7-7-7-7-7-7-7-7-7-7-|
G|-------------------------------------------------|
C|-------------------------------------------------|
Padge- Dist.
D|------------------------------------------------------------|
A|------------------------------------------------------------|
F|-10-10p9----12----12-12p9----10----10-10p9----12----12-12p9-|
C|------------------------------------------------------------|
G|---------10----10---------10----10---------10----10---------|
C|------------------------------------------------------------|
           -     -          -     -          -     -
...Heaven...

Matt
D|-------------------------------------------------|
A|-------------------------------------------------|
F|-------------------------------------------------|
C|-8-8-8-8-8-8-8-8-8-8-8-8-8-8-8-8-8-8-8-8-8-8-8-8-|
G|-------------------------------------------------|
C|-------------------------------------------------|
Padge
D|------------------------------------------------------------|
A|------------------------------------------------------------|
F|-10-10p9----12----12-12p9----10----10-10p9----12----12-12p9-|
C|------------------------------------------------------------|
G|---------10----10---------10----10---------10----10---------|
C|------------------------------------------------------------|
           -     -          -     -          -     -
...Where is my angel?

Matt
D|-------------------------------------------------|
A|-------------------------------------------------|
F|-------------------------------------------------|
C|-3-3-3-3-3-3-3-3-3-3-3-3-3-3-3-3-3-3-3-3-3-3-3-3-|
G|-------------------------------------------------|
C|-------------------------------------------------|
Padge
D|------------------------------------------------------|
A|------------------------------------------------------|
F|----10p9---12---12-12p9---10---10-10p9---12---12-12p9-|
C|-8~------8----8---------8----8---------8----8---------|
G|------------------------------------------------------|
C|------------------------------------------------------|
           -    -         -    -         -    -
...I need her now...

Matt
D|-----------------------------------------------|
A|-----------------------------------------------|
F|-----------------------------------------------|
C|-5-5-5-5-5-5-5-5-5-5-5-5-5-5-5-5-5-5-5-5-5-5-5-|
G|-----------------------------------------------|
C|-----------------------------------------------|
Padge
D|-----------------------------------------------|
A|-----------------------------------------------|
F|----10p9---12---12-12p9---10---10-10p9---12----|
C|-8~------8----8---------8----8---------8----8\-|
G|-----------------------------------------------|
C|-----------------------------------------------|
           -    -         -    -         -
...Holding me...

Matt
D|------------------------------------------------------|
A|------------------------------------------------------|
F|-----------------------------------------5--5--7--7---|
C|-----------------------------------------5--5--7--7---|
G|-0-0-----------0-0----------0-0-------0--3--3--5--5---|
C|-0-0-----------0-0----------0-0-------0---------------|
   - -           - -          - -       -
Padge
D|------------------------------------------------------|
A|------------------------------------------------------|
F|----2------------2------------2-----------------------|
C|-/5---5-0-3-5-/5---5-0-3-5-/5---5-0-3-5-/8-7-5-/7-5-3-|
G|------------------------------------------------------|
C|------------------------------------------------------|
...TONIGHT!!!"

Matt
D|------------------------------------------------------|
A|------------------------------------------------------|
F|------------------------------------------------------|
C|-----------------------------------------0~~~~~~~~~~~-|
G|-0-0-----------0-0----------0-0-------0--0~~~~~~~~~~~-|
C|-0-0-----------0-0----------0-0-------0--0~~~~~~~~~~~-|
   - -           - -          - -       -  -
Padge
D|------------------------------------------------------|
A|------------------------------------------------------|
F|----2------------2------------2-----------------------|
C|-/5---5-0-3-5-/5---5-0-3-5-/5---5-0-3-5-/8-7-5-/7-5-3-|
G|------------------------------------------------------|
C|------------------------------------------------------|

Matt
D|------------------------------------------------------|
A|------------------------------------------------------|
F|-----------------------------------------5--5--7--7---|
C|-----------------------------------------5--5--7--7---|
G|-0-0-----------0-0----------0-0-------0--3--3--5--5---|
C|-0-0-----------0-0----------0-0-------0---------------|
   - -           - -          - -       -
Padge
D|------------------------------------------------------|
A|------------------------------------------------------|
F|----2------------2------------2-----------------------|
C|-/5---5-0-3-5-/5---5-0-3-5-/5---5-0-3-5-/8-7-5-/7-5-3-|
G|------------------------------------------------------|
C|------------------------------------------------------|

Matt
D|------------------------------------------------------|
A|------------------------------------------------------|
F|-----------------------------------------5--5--7--7---|
C|-----------------------------------------5--5--7--7---|
G|-0-0-----------0-0----------0-0-------0--3--3--5--5---|
C|-0-0-----------0-0----------0-0-------0---------------|
   - -           - -          - -       -
Padge
D|------------------------------------------------------|
A|------------------------------------------------------|
F|----2------------2------------2-----------------------|
C|-/5---5-0-3-5-/5---5-0-3-5-/5---5-0-3-5-/8-7-5-/7-5-3-|
G|------------------------------------------------------|
C|------------------------------------------------------|

Matt
D|-------------------------------------------------|
A|-------------------------------------------------|
F|-------------------------------------------------|
C|-2-2-2-2-2-2-2-2-3-3-3-3-3-3-3-3-2-2-2-2-2-2-2-2-|
G|-------------------------------------------------|
C|-------------------------------------------------|
   - - - - - - - - - - - - -
Padge
D|-------------------------------------------------|
A|-------------------------------------------------|
F|-------------------------------------------------|
C|-2-2-2-2-2-2-2-2-3-3~~~~~~~~~~~~~-5~~~~~~~~~~~~~~|
G|-------------------1~~~~~~~~~~~~~-3~~~~~~~~~~~~~~|
C|-------------------------------------------------|
   - - - - - - - - -


-Solo-
Padge
D|------------------------------------------------------------------|
A|------------------------------------------------------------------|
F|---------------7h8h10-/14~~~-\7~~~-10h12p10h12p10-9h10p9h10p9-7~~-|
C|--------7h8h10----------------------------------------------------|
G|-7h8h10-----------------------------------------------------------|
C|------------------------------------------------------------------|
         T        T        T        T
D|-10h13h17p10h13h17p10h13h17p10h13h17p10-|
A|----------------------------------------|
F|----------------------------------------|
C|----------------------------------------|
G|----------------------------------------|
C|----------------------------------------|
        T       T       T       T
D|-8h11h15p8h11h15p8h11h15p8h11h15p8-|
A|-----------------------------------|
F|-----------------------------------|
C|-----------------------------------|
G|-----------------------------------|
C|-----------------------------------|
        T       T       T       T
D|-6h10h13p6h10h13p6h10h13p6h10h13p6-13\-|
A|---------------------------------------|
F|---------------------------------------|
C|---------------------------------------|
G|---------------------------------------|
C|---------------------------------------|
Matt Under Solo
D|------------------------------------------------------------|
A|------------------------------------------------------------|
F|------------------------------------------------------------|
C|--------------------------------------------7-7-5-5-8-8-5-5-|
G|------------------------------------------------------------|
C|-0-0-0-00-0-0-0-0-0-00-0-0-8-7-0-0-0-00-0-0-----------------|
     - - -- - -   - - -- - -       - - -- - -
D|----------------------------------------------------------------|
A|--------------------------------------------10-10-8-8-11-11-8-8-|
F|----------------------------------------------------------------|
C|----------------------------------------------------------------|
G|----------------------------------------------------------------|
C|-0-0-0-00-0-0-0-0-0-00-0-0-8-7-0-0-0-00-0-0---------------------|
     - - -- - -   - - -- - -       - - -- - -

Matt
D|-------------------------------------------------|
A|----------/11-10---------------------------------|
F|-/10-9-----------9~-10-9---7-10-9-10-12-10-9-----|
C|-------8~----------------7-------------------10~-|
G|-------------------------------------------------|
C|-------------------------------------------------|
         T        T        T        T
D|-10h13h17p10h13h17p10h13h17p10h13h17p10-|
A|----------------------------------------|
F|----------------------------------------|
C|----------------------------------------|
G|----------------------------------------|
C|----------------------------------------|
         T        T        T        T
D|-10h13h18p10h13h18p10h13h18p10h13h18p10-|
A|----------------------------------------|
F|----------------------------------------|
C|----------------------------------------|
G|----------------------------------------|
C|----------------------------------------|
         T        T        T        T
D|-10h13h20p10h13h20p10h13h20p10h13h20p10---------------------|
A|----------------------------------------10-10-8-8-11-11-8-8-|
F|------------------------------------------------------------|
C|------------------------------------------------------------|
G|------------------------------------------------------------|
C|------------------------------------------------------------|
Padge Under Solo
D|-----------------------------------------------------------|
A|-----------------------------------------------------------|
F|-----------------------------------------------------------|
C|-----------------------------------------------------------|
G|-----------------------------------------------------------|
C|-0--0-0-0-0-0--0--0-0-0-0-0--0--0-0-0-0-0--0--0-0-0-0-0--0-|
      - - - - -     - - - - -     - - - - -     - - - - -
D|--------------------------------------------------------|
A|--------------------------------------------------------|
F|------------------------------------10-10-9-9-12-12-9-9-|
C|--------------------------------------------------------|
G|--------------------------------------------------------|
C|-0--0--0--0--0--0--0--0--0--0--0--0---------------------|


-Pre Chorus-
Matt
D|---------------------------------------------|
A|---------------------------------------------|
F|---------------------------------------------|
C|-3--3--5--5--2--2-9-10--3--3--5--5-----------|
G|-1--1--3--3--0--0-7--8--1--1--3--3-x\\\\\\\\-|
C|-----------------------------------x\\\\\\\\-|
Padge
D|---------------------------------------------|
A|---------------------------------------------|
F|-----------------------10-10-12-12-----------|
C|-8--8-10-10--7--7-9-10-x--x--x--x------------|
G|-8--8-10-10--7--7-7--8-8--8--10-10-x\\\\\\\\-|
C|-8--8-10-10--7--7------------------x\\\\\\\\-|
"Will I just fall to pieces? Or am I alright?

Matt
D|------------------------------------------------------|
A|------------------------------------------------------|
F|------------------------------------7h8p7h8p7h8p7h8p7-|
C|-3--3--5--5--2--2--9-10--3--3--5--5-------------------|
G|-1--1--3--3--0--0--7--8--1--1--3--3-------------------|
C|------------------------------------------------------|
Padge
D|------------------------------------------------------|
A|------------------------------------------------------|
F|------------------------10-10-12-12-7h8p7h8p7h8p7h8p7-|
C|-8--8-10-10--7--7-9-10--x--x--x--x--------------------|
G|-8--8-10-10--7--7-7--8--8--8--10-10-------------------|
C|-8--8-10-10--7--7-------------------------------------|
...To iron out my creases YOU MUST LACERATE ME 'TIL THERE GONE!!"


-Chorus-
Matt & Padge
D|-----------------------------------------------------------------|
A|-----------------------------------------------------------------|
F|-----------------------------------------------------------------|
C|-------------------------------7---5-----2---3-------------------|
G|-------------------2*~-----------------------------1-0-1~-5-3-5~-|
C|-0-0-0-0-0-0-0-0-0-----0-0-0-0---0---0-0---0---0-0---------------|
   - - - -   - - - -     - - - -   -   - -   -   - - - -    - -
                         "THESE ARE MY FINAL WORDS TO YOU!

Matt
D|-----------------------------------------------------------|
A|-----------------------------------------------------------|
F|-----------------------------------------------------------|
C|-------------------------7---5-----2---3------------3-2-3~-|
G|---------------------------------------------1-0-1~--------|
C|-0-0-0-0-0-0-0-0-0-0-0-0---0---0-0---0---0-0---------------|
   - - - - - - - - - - - -   -   - -   -   - - - -    - -
Padge
D|-----------------------------------------------------------|
A|-----------------------------------------------------------|
F|-----------------------------------------------------------|
C|-------------------------7---5-----2---3-------------------|
G|---------------------------------------------1-0-1~-5-3-5~-|
C|-0-0-0-0-0-0-0-0-0-0-0-0---0---0-0---0---0-0---------------|
   - - - - - - - - - - - -   -   - -   -   - - - -    - -
                 ...I KNOW YOU'RE LISTENING, CAN YOU HEAR ME!!!

Matt
D|------------------------------------------------------|
A|------------------------------------------------------|
F|------------------------------------------------------|
C|--------------------3---2----------------------3-2-3~-|
G|-0-0--0-0--0-0--0-0-----------3---5-----1-0-1~--------|
C|-0-0--0-0--0-0--0-0---0---0-0---0---0-0---------------|
   - -  - -  - -  - -   -   - -   -   - - - -    - -
Padge
D|------------------------------------------------------|
A|------------------------------------------------------|
F|------------------------------------------------------|
C|--------------------7---5-----2---3-------------------|
G|-0-0--0-0--0-0--0-0---------------------1-0-1~-5-3-5~-|
C|-0-0--0-0--0-0--0-0---0---0-0---0---0-0---------------|
   - -  - -  - -  - -   -   - -   -   - - - -    - -
                  ...THE TIME HAS COME TO SAY GOODBYE!!

Matt
D|--------------------------------------------------------------|
A|--------------------------------------------------------------|
F|------------------------------------------5~~~~~~~~~~~~-------|
C|--------------------3---2-----------------5~~~~~~~~~~~~-------|
G|-0-0--0-0--0-0--0-0-----------3---5-1-0-1-3~~~~~~~~~~~~-x\\\\-|
C|-0-0--0-0--0-0--0-0---0---0-0---0-----------------------x\\\\-|
   - -  - -  - -  - -   -   - -   -   - - -
Padge
D|--------------------------------------------------------------|
A|--------------------------------------------------------------|
F|------------------------------------------5~~~~~~~~~~~~-------|
C|--------------------7---5-----2---3-------5~~~~~~~~~~~~-------|
G|-0-0--0-0--0-0--0-0-----------------1-0-1-3~~~~~~~~~~~~-x\\\\-|
C|-0-0--0-0--0-0--0-0---0---0-0---0-----------------------x\\\\-|
   - -  - -  - -  - -   -   - -   -   - - -
                  ...THESE ARE MY FINAL WORDS...To YOU!!!"

Matt
D|-------------------------------------------------------------|
A|-------------------------------------------------------------|
F|-------------------------------------------------------------|
C|---------------------------------------------------------3~~-|
G|-0-0--0-0--0-0--0-0--------------------------------0-0-0-1~~-|
C|-0-0--0-0--0-0--0-0--------------------------------0-0-0-----|
   - -  - -  - -  - -                                - - -
Padge
D|-------------------------------------------------------------|
A|-------------------------------------------------------------|
F|-10-10p9-0-12-0-12-12p9-0-10-0-10-10p9-0-12-0-12-12p9-0-10~~-|
C|-------------------------------------------------------------|
G|-------------------------------------------------------------|
C|-------------------------------------------------------------|

Matt
D|------------------------------------------------------------|
A|------------------------------------------------------------|
F|------------------------------------------------------------|
C|--------------------------------------------------------3~~-|
G|-0-0--0-0--0-0--0-0-------------------------------0-0-0-1~~-|
C|-0-0--0-0--0-0--0-0-------------------------------0-0-0-----|
   - -  - -  - -  - -                               - - -
Padge
D|------------------------------------------------------------|
A|------------------------------------------------------------|
F|-10-10p9-0-12-0-12-12p9-0-10-0-10-10p9-0-12-0-12-12p9-0-9~~-|
C|------------------------------------------------------------|
G|------------------------------------------------------------|
C|------------------------------------------------------------|

Matt
D|-------------------------------------------------------------|
A|-------------------------------------------------------------|
F|-------------------------------------------------------------|
C|-2-2~-2-2~-2-2~-2-2~-2-2~-2-2~-2-2~-2-2~-----------------3~~-|
G|-0-0~-0-0~-0-0~-0-0~-0-0~-0-0~-0-0~-0-0~-----------0-0-0-1~~-|
C|---------------------------------------------------0-0-0-----|
   -    -    -    -    -    -    -    -              - - -
Padge
D|-------------------------------------------------------------|
A|-------------------------------------------------------------|
F|-10-10p9-0-12-0-12-12p9-0-10-0-10-10p9-0-12-0-12-12p9-0-10~~-|
C|-------------------------------------------------------------|
G|-------------------------------------------------------------|
C|-------------------------------------------------------------|

Matt
D|------------------------------------------------------------|
A|------------------------------------------------------------|
F|------------------------------------------------------------|
C|--------------------------------------------------------3~~-|
G|-0-0--0-0--0-0--0-0-------------------------------0-0-0-1~~-|
C|-0-0--0-0--0-0--0-0-------------------------------0-0-0-----|
   - -  - -  - -  - -                               - - -
Padge
D|------------------------------------------------------------|
A|------------------------------------------------------------|
F|-10-10p9-0-12-0-12-12p9-0-10-0-10-10p9-0-12-0-12-12p9-0-9~~-|
C|------------------------------------------------------------|
G|------------------------------------------------------------|
C|------------------------------------------------------------|

Matt & Padge
D|--------------------------------------------------------------------------|
A|--------------------------------------------------------------------------|
F|--------------------------------------------------------------------------|
C|--------------------------------------------------------------------------|
G|-0-0--0-0--0-0--0-0~~~~-0-0--0-0--0-0--0-0~~~~-0-0--0-0--0-0--0-0~~~~-----|
C|-0-0--0-0--0-0--0-0~~~~-0-0--0-0--0-0--0-0~~~~-0-0--0-0--0-0--0-0~~~~-12\-|
   - -  - -  - -  - -     - -  - -  - -  - -     - -  - -  - -  - -

Matt
D|-----------------------|
A|-----------------------|
F|-----------------------|
C|-----------------------|
G|-----------------------|
C|-0-0--0-0--0-0--0-3*~~-|
Padge
D|-----------------------|
A|-----------------------|
F|-----------------------|
C|-----------------------|
G|------------------3*~~-|
C|-0-0--0-0--0-0--0------|

            
            
Suggest correction
Creating personal tab
Creating personal tab
You can edit any tab online and save it as your Personal.

You can edit, replace or remove any tab part or add personal notes – all changes will be seen only by you.

Personal tabs can be accessed anytime from any device, even offline.
Learn more »
comments
print report bad tab
10 comments total. Showing first comments.
0 reply
Disappear 60 Oct 07, 2009 11:06 AM

absolutely perfect

0 reply
spitbubble 20 Nov 14, 2009 07:24 AM

this tab is awesomely perfect! thanks dude

0 reply
still pending 31 Feb 11, 2010 08:34 AM

The intro I thnk they say die not aah I'm not posotive though so sorry if I'm wrong

guest
You may want to rate the tab now too:
select rating
Wanna post a correction for this tab? Suggest correction