Oops, an error
Loading. Please wait.

Just Another Star bass

version 1
version 1

Whole song

Interactive

4,903 views 3 this week
1 commentread comment
1 2 3 4 5
x 3
add to favorites
×
Save as Personal and add changes to this tab that will be seen only by you. Learn more ›
×
You can save this tab as Personal to edit and correct it or add notes. All changes will be seen only by you. Learn more »
launch autoscroll
font size
0
reset
guitar tuner
edit
Autoscroll
slow
fast
+/-
esc
set tempo
stop
Difficulty
Part A
--------------------------------------------|
----------5-4-5-7-5-4-5---------------------|
--------------------------------------------|
-0-0----------------------------------------|

Part B
-------------------------------------------|
-------5-4-5-7-5-4-------------------------|
-----------------------5-------------------|
-0-0---------------------------------------|

Part C
---------------7------------------------------------------------|                    I
------5-4-5-----------------------------------------------------|
----------------------------------------------------------------|
-0-0------------------------------------------------------------|

Part D
--------------------------------------------|
--------------------------------------------|
--------------------------------------------|
-0-0--0-0--0-0--0-0-------------------------|

Part E
--------------------------------------------|
--------------------------------------------|
--------------------------------------------|
1p0h1p0h1p0h1-1-1-1p0h1---------------------|

Part F
---------------------------------------------------------|
---------------------------------------------------------|
---------------------------------------------------------|
-55555555555555559999999999999999-

Part G
----------------------------------------------------------|
----------------------------------------------------------|
-4---------5-4---------7-4----------5-4-2-1---------------|
---000000-----00000-----00000-----------------------------|

Part H
--------------------------------------------------------------|
--------------------------------------------------------------|
--------------------------------------------------------------|
--------0-0-0-0-0-0-0-0-0-0-0-0-0-----------------------------|

Part I
--------------------------------------------------------------|
--------------------------------------------------------------|
--------------------------------------------------------------|
-00--00--00---------------------------------------------------|


Order
Part A	x2
Part B
Part C
Part A	x2
Part B
Part C
Part D 	x4
Part E	(played after guitar has played it once)
Part A	x2
Part B
Part C
Part D	x4
Part E	(played after guitar has played it once)
Part F	x4
Part G	x4
Part H	x2	(Start at 1:57)
Part F	x4
Part G	x4
Part I
Suggest correction
Creating personal tab
Creating personal tab
You can edit any tab online and save it as your Personal.

You can edit, replace or remove any tab part or add personal notes – all changes will be seen only by you.

Personal tabs can be accessed anytime from any device, even offline.
Learn more »
Give kudos to tab author, rate the tab!
1 2 3 4 5
comments
print report bad tab
1 comment total.
0 reply
xwafflesx41 70 Jan 31, 2007 10:43 AM

a lot of the stuff you put in here is only played on guitar. like the D|-5-4-5-7-5-4-5-- in the verse is only played by the 2 guitars.

guest
Wanna post a correction for this tab? Suggest correction