Oops, an error
Loading. Please wait.

Just Another Star guitar pro

version 1
version 1

Whole song

Interactive

29,438 views 18 this week
3 commentsread comments
1 2 3 4 5
x 12
add to favorites
guitar tuner
Autoscroll
slow
fast
+/-
esc
set tempo
stop
Author
File Format
Filesize
Instruments
.gp4
39 Kb
rhythm_guitars #2, lead_guitars #2, basses, percussions
"Just Another Star"
demo version
Play now

or get full version for Free

×
Get full version now!
Learn and play this song
in Tab Pro
Try for free

or get $10 off Welcome Bonus

Get welcome bonus
Get access to Tab Pro version of “Just Another Star”!
Tab Pro is a premium guitar tab service, available on PC, Mac, iOS and Android
TRY FOR FREE
Your download will start in 7 seconds
×
Like this song? We have more! Follow us on Facebook for daily tips, lessons and other guitar-related content.
To download “Just Another Star” Guitar Pro tab click button below
Please note that you must have Guitar Pro software installed on your
computer in order to view this file.
Suggest correction
comments
report bad tab
3 comments total.
0 reply
JHTorkveen 10 Dec 18, 2007 10:53 AM

Pretty accurate except for the solo, which you have tabbed a little harder than necessary.

Instead of playing this
on the solo
thing:

--------5------------------------
------4---7-5-2-4-5-4------------
---------------------------------
-----
----------------------------
---------------------------------
---------------------------------

Why not make it
this?:

--------5------------------------
------4---7-5---4-5-4------------
--------------7------------------
-----
----------------------------
---------------------------------
---------------------------------

No need to make it
harder than necessary=)

0 reply
JHTorkveen 10 Dec 18, 2007 10:55 AM

Uhm correcting myself here, found out I forgot to use the tab-tags:

Pretty accurate except for the solo, which you
have tabbed a little harder than necessary.

Instead of playing this
on the solo
thing:

--------5------------------------
------4---7-5-2-4-5-4------------
---------------------------------
---------------------------------
---------------------------------
---------------------------------



Why not make it
this?:

--------5------------------------
------4---7-5---4-5-4------------
--------------7------------------
---------------------------------
---------------------------------
---------------------------------



No need to make it
harder than necessary=)

0 reply
hekubaeren 10 Apr 09, 2012 08:19 AM

what are you deaf? intro completely wrong

guest
You may want to rate the tab now too:
select rating