Oops, an error
Loading. Please wait.

Just Another Star bass

version 2
version 2

Whole song

Interactive

3,054 views 1 this week
no commentswrite comment
1 2 3 4 5
1 last vote to show rating
add to favorites
×
Save as Personal and add changes to this tab that will be seen only by you. Learn more ›
×
You can save this tab as Personal to edit and correct it or add notes. All changes will be seen only by you. Learn more »
launch autoscroll
font size
0
reset
guitar tuner
edit
Autoscroll
slow
fast
+/-
esc
set tempo
stop
-------------------------------------------------------------------------------
			     The Poison - Bullet For My Valentine
-------------------------------------------------------------------------------

This is mostly from wilsea05's Guitar Pro Tab of this song, and I just put them on paper 
changed some parts.

The other Just Another Star bass tab sounds OK but if you look at the live DVD its not correct.

Credits to wilsea05!

Tuning: Drop C (CGCF)


Verse 1
F|-----------------------------------------------|
C|--------------------------------------5-5-5-5--|
G|-----------------5--3~-------1-----------------|
C|--0~-----0~------------------------5-----------|

F|-----------------------------------------------|
C|-----------------------------------------------|
G|-----------------------------5--3--3-3-3-3-3-3-|
C|--00-----00------------------------------------|

F|----------------------------------|
C|----------------------------------|
G|-3-3-3-3-3-3-3-3-1~----1----------|
C|--------------------------5~----5-|

Chorus (jump jump jump jump!)
F|---------------------|
C|---------------------|
G|---------------------|
C|-0-0--0-0--0-0--0-0--| x4

F|----------------------------------------------|
C|----------------------------------------------|
G|----------------------------------------------|
C|---0---1---1---1---1---1--1--1---1---1-1------|

Verse 2 (you betrayed me for the last time..)
F|-----------------------------------------------|
C|-----------------------------------------------|
G|-----------------------------5--3--3-3-3-3-3-3-|
C|--00-----00------------------------------------|

F|----------------------------------|
C|----------------------------------|
G|-3-3-3-3-3-3-3-3-1~----1----------|
C|--------------------------5~----5-|

Chorus (jump jump jump jump!)
F|---------------------|
C|---------------------|
G|---------------------|
C|-0-0--0-0--0-0--0-0--| x4

F|-----------------------------------------------|
C|-----------------------------------------------|
G|-----------------------------------------------|
C|---0---1---1---1---1---1--1--1---1---1-1-------|

Verse 3 x2 (your just another star thats burned out to quickly..)
F|----------------------------------|
C|----------------------------------|
G|-11111111111111113333333333333333-|
C|----------------------------------|

F|----------------------------------|
C|----------------------------------|
G|-1111111111111111333333-----------|
C|-----------------------3------5---|

pre verse
F|---------------------------------------------|
C|---------------------------------------------|
G|-4---------5-4---------7-4----------5-4-2-1--|
C|---000000-----00000-------00000--------------| x4

Bridge
F|------------------|-----------------------------|
C|------------------|-----------------------------|
G|--1~------1~------|-1-1-1-1-1-1-1-1-1-1-1-1-1-1-|
C|------------------|-----------------------------|

F|-----------------------------------|
C|-----------------------------------|
G|-1-1-1-1-1-1-1-1-1-1-1-1-1---------|
C|---------------------------3----5--|

Verse 4 x2
F|----------------------------------|
C|----------------------------------|
G|-11111111111111113333333333333333-|
C|----------------------------------|

F|----------------------------------|
C|----------------------------------|
G|-1111111111111111333333-----------|
C|-----------------------3------5---|

Breakdown
F|---------------------------------------------|
C|---------------------------------------------|
G|-4---------5-4---------7-4----------5-4-2-1--|
C|---000000-----00000-------00000--------------| x4

Outro
F|-------------|
C|-------------|
G|-------------|
C|-00--00--05~-|

| /  slide up
| \  slide down
| h  hammer-on
| p  pull-off
| ~  vibrato
| +  harmonic
| x  Mute note
===============================================================================
Suggest correction
Creating personal tab
Creating personal tab
You can edit any tab online and save it as your Personal.

You can edit, replace or remove any tab part or add personal notes – all changes will be seen only by you.

Personal tabs can be accessed anytime from any device, even offline.
Learn more »
Give kudos to tab author, rate the tab!
1 2 3 4 5
comments
print report bad tab
guest
You may want to rate the tab now too:
select rating
Wanna post a correction for this tab? Suggest correction