Oops, an error
Loading. Please wait.

Leech Bass Tab

version 1
version 1

Whole song

Interactive

1,426 views 6 this week
no commentswrite comment
1 2 3 4 5
excellent!
x 8
add to favorites
launch autoscroll
font size
0
reset
guitar tuner
Autoscroll
slow
fast
+/-
esc
set tempo
stop
Help us to improve Ultimate-Guitar.com Take our survey!
×
-------------------------------------------------------------------------------
                        Leech - Bullet For My Valentine
-------------------------------------------------------------------------------

Tuning: F C G C


INTRO

F|---------------------------------------------------------------------------|
C|---------------------------------------------------------------------------|
G|---------------------------------------------------------------------------|
C|--------0--------3--------5--------8----10----0--------3--------5----------|


F|-----------------------------------------------|
C|-----------------------------------------------|
G|-----------------------------------------------|
C|---8--8--8--8-------8--8--8--8--------10--10---|



VERSE

F|---------------------------------------------------------------------------|
C|---------------------------------------------------------------------------|
G|---------------------------5--5--5--5--5--5--5--5--5--5--5--5--5--5--5--5--|
C|---0~----------3~----------------------------------------------------------|


F|-------------------------------------------------------------|
C|-------------------------------------------------------------|
G|---5--5--5--5--5--5--5--5--5--5--5--5--5--5--5--5------------|
C|------------------------------------------------------3~-----|


F|-------------------------------------------------------------------|
C|-------------------------------------------------------------------|
G|-------------------------------------------------------------------|===
C|---6---5---3--------0---0--0--0--0--0--0-----0--0--0--0--3--5------| ===\
                                                                           2 Times
F|-------------------------------------------------------------------| ===/
C|-------------------------------------------------------------------|===
G|-------------------------------------------------------------------|
C|---0---0--0--0--0--0--0---------6---5---3-------------3~-----------|


F|----------------|
C|----------------|
G|----------------|
C|---6---5---3----|



PRE CHORUS

F|-------------------------------------------------------|
C|-------------------------------------------------------|
G|-------------------------------------------------------|
C|----0--0--0--0--0--0--0--0--0--0--0--0--0--0--0--0-----|


F|-------------------------------------------------------|
C|-------------------------------------------------------|
G|-------------------------------------------------------|
C|----3--3--3--3--3--3--3--3--3--3--3--3--3--3--3--3-----|


F|-------------------------------------------------------|
C|-------------------------------------------------------|
G|-------------------------------------------------------|
C|----5--5--5--5--5--5--5--5--5--5--5--5--5--5--5--5-----|


F|-----------------------------------------------|
C|-----------------------------------------------|
G|-----------------------------------------------|
C|---8--8--8--8-------8--8--8--8--------10--10---|



CHORUS

F|---------------------------------------------------------------------|
C|---------------------------------------------------------------------|
G|---------------------------------------------------------------------|
C|----0---0---0---0---0---0---0---0---3---3---3---3---3---3---3---3----|


F|---------------------------------------------------------------------|
C|---------------------------------------------------------------------|
G|---------------------------------------------------------------------|
C|----5---5---5---5---5---5---5---5---8---8---8---8---8---8---8---8----|


F|---------------------------------------------------------------------|
C|---------------------------------------------------------------------|
G|---------------------------------------------------------------------|
C|----0---0---0---0---0---0---0---0---3---3---3---3---3---3---3---3----|


F|--------------------------------------------------------------------------|
C|--------------------------------------------------------------------------|
G|--------------------------------------------------------------------------|
C|----5---5---5---5---5---5---5---5---8--8--8--8----8--8--8--8----10--10----|



VERSE

F|---------------------------------------------------------------------------|
C|---------------------------------------------------------------------------|
G|---------------------------5--5--5--5--5--5--5--5--5--5--5--5--5--5--5--5--|
C|---0~----------3~----------------------------------------------------------|


F|-------------------------------------------------------------|
C|-------------------------------------------------------------|
G|---5--5--5--5--5--5--5--5--5--5--5--5--5--5--5--5------------|
C|------------------------------------------------------3~-----|


F|-------------------------------------------------------------------|
C|-------------------------------------------------------------------|
G|-------------------------------------------------------------------|===
C|---6---5---3--------0---0--0--0--0--0--0-----0--0--0--0--3--5------| ===\
                                                                           2 Times
F|-------------------------------------------------------------------| ===/
C|-------------------------------------------------------------------|===
G|-------------------------------------------------------------------|
C|---0---0--0--0--0--0--0---------6---5---3-------------3~-----------|


F|----------------|
C|----------------|
G|----------------|
C|---6---5---3----|



PRE CHORUS

F|-------------------------------------------------------|
C|-------------------------------------------------------|
G|-------------------------------------------------------|
C|----0--0--0--0--0--0--0--0--0--0--0--0--0--0--0--0-----|


F|-------------------------------------------------------|
C|-------------------------------------------------------|
G|-------------------------------------------------------|
C|----3--3--3--3--3--3--3--3--3--3--3--3--3--3--3--3-----|


F|-------------------------------------------------------|
C|-------------------------------------------------------|
G|-------------------------------------------------------|
C|----5--5--5--5--5--5--5--5--5--5--5--5--5--5--5--5-----|


F|-----------------------------------------------|
C|-----------------------------------------------|
G|-----------------------------------------------|
C|---8--8--8--8-------8--8--8--8--------10--10---|



CHORUS

F|---------------------------------------------------------------------|
C|---------------------------------------------------------------------|
G|---------------------------------------------------------------------|
C|----0---0---0---0---0---0---0---0---3---3---3---3---3---3---3---3----|


F|---------------------------------------------------------------------|
C|---------------------------------------------------------------------|
G|---------------------------------------------------------------------|
C|----5---5---5---5---5---5---5---5---8---8---8---8---8---8---8---8----|


F|---------------------------------------------------------------------|
C|---------------------------------------------------------------------|
G|---------------------------------------------------------------------|
C|----0---0---0---0---0---0---0---0---3---3---3---3---3---3---3---3----|


F|--------------------------------------------------------------------------|
C|--------------------------------------------------------------------------|
G|--------------------------------------------------------------------------|
C|----5---5---5---5---5---5---5---5---8--8--8--8----8--8--8--8----10--10----|


F|---------------------------------------------------------------------------|
C|---------------------------------------------------------------------------|
G|---------------------------------------------------------------------------|
C|----0~------------------0--0--0--0------------0~----------------12\--------|



BRIDGE

F|---------------------------------------------------------------------------|
C|---------------------------------------------------------------------------|
G|---------------------------------------------------------------------------|
C|-----------------------0--0--0--0--0--0--0--0------------------------------|


F|---------------------------------------------------------------------------|
C|---------------------------------------------------------------------------|
G|---------------------------------------------------------------------------|
C|-----------------------0--0--0--0--0--0--0--0------------------------------|


F|----------------------------------------------------------------------------------------|
C|----------------------------------------------------------------------------------------|
G|----------------------------------------------------------------------------------------|
C|--0--6^--0---6^--0--6^---0--6^---0--0--0--0--0--0--0--0---0--6^--0---6^--0--6^---0--8^--|


F|----------------------------------------------------------------------------------------|
C|----------------------------------------------------------------------------------------|
G|----------------------------------------------------------------------------------------|
C|--0--6^--0---6^--0--6^---0--6^---0--0--0--0--0--0--0--0---0--6^--0---6^--0--6^---0--8^--|


F|---------------------------------------------------------------------------------|
C|---------------------------------------------------------------------------------|
G|---------------------------------------------------------------------------------|
C|----0~---------3~---------5~---------8--8--8--8-------8--8--8--8--------10--10---|



CHORUS

F|-----------------------------------------------------------------------------|
C|-----------------------------------------------------------------------------|
G|-----------------------------------------------------------------------------|
C|--------0--------3--------5--------8----10----0--------3--------5-------8----|


F|---------------------------------------------------------------------|
C|---------------------------------------------------------------------|
G|---------------------------------------------------------------------|
C|----0---0---0---0---0---0---0---0---3---3---3---3---3---3---3---3----|


F|---------------------------------------------------------------------|
C|---------------------------------------------------------------------|
G|---------------------------------------------------------------------|
C|----5---5---5---5---5---5---5---5---8---8---8---8---8---8---8---8----|


F|---------------------------------------------------------------------|
C|---------------------------------------------------------------------|
G|---------------------------------------------------------------------|
C|----0---0---0---0---0---0---0---0---3---3---3---3---3---3---3---3----|


F|---------------------------------------------------------------------------------|
C|---------------------------------------------------------------------------------|
G|---------------------------------------------------------------------------------|
C|----5---5---5---5---5---5---5---5---8--8--8--8----8--8--8--8----10--10------0~---|



***********************************************************************************
Suggest correction
comments
print report bad tab
guest
You may want to rate the tab now too:
select rating
Please do not post tabs as comments. Select "correction" instead!