Oops, an error
Loading. Please wait.

My Fist Your Mouth Her Scars Tab

version 1
version 1

Solo

Whole song

Interactive

48,275 views 48 this week
20 commentsread comments
1 2 3 4 5
accurate
x 18
add to favorites
launch autoscroll
font size
0
reset
how to read this tab
guitar tuner
Tab Pro tools
  • play this tab
  • loop segment
  • change instrument
  • show fretboard
  • metronome
Autoscroll
slow
fast
+/-
esc
set tempo
stop
Difficulty
Tuning
intermediate
C G C F A D
Intro/Chorus
----------------------------------------------------------------|
----------------------------------------------------------------|
----------------------------------------------------------------|
------------------------------------------------10-8-7----7-----|
-----8---8-----------7---7-----------8---8-------------10---8---|
-0-0---0---0-0-0-0-0---0---0-0-0-0-0---0---0-0------------------|


----------------------------------------------------------------|
----------------------------------------------------------------|
----------------------------------------------------------------|
------------------------------------------------10-8-7----7-----|
-----8---8-----------7---7-----------8---8-------------10---*8--|
-0-0---0---0-0-0-0-0---0---0-0-0-0-0---0---0-0------------------|

Repeat x

Verse
----------------------------------------------------------------|
----------------------------------------------------------------|
----------------------------------------------------------------|
----------------------------------------------------------------|
-0--0-0-0-0-0-0-0--10--8--0--3----0--0-0-0-0-0-0-0--10--8--0--1-|
-0--0-0-0-0-0-0-0--10--8--0--3----0--0-0-0-0-0-0-0--10--8--0--1-|


                               PM  x x    x x    x x
----------------------------------------------------------------|
----------------------------------------------------------------|
---------------------------------7-7-7--8-8-8--5-5-5--3--8------|
---------------------------------7-7-7--8-8-8--5-5-5--3--8------|
-0--0-0-0-0-0-0-0--10--8--0--3---5-5-5--6-6-6--3-3-3--1--6------|
-0--0-0-0-0-0-0-0--10--8--0--3----------------------------------|


Bridge
---------------------------------------------------|
---------------------------------------------------|
-/14\12/14/15\14\12/14---14\12/14/15\14\12\10------|
---------------------------------------------------| x2
-/12\10/12/13\12\10/12---12\10/12/13\12\10\8-------|
---------------------------------------------------|

Chorus
Verse
Bridge
Chorus

Solo                                                                    h
--------------10--------------10----------------10--------------13----10-12-------------------------|
------13--------------13----------------13--------------13------------------------------------------|
-9-10----9-10----9-10----9-10------9-10----9-10----9-10----9-10----------------14-12----------------|
-------------------------------------------------------------------------------------15-14-15-10-12-|
----------------------------------------------------------------------------------------------------|
----------------------------------------------------------------------------------------------------|

                                                                          h
--------------10------12--------15----------------10--------------15----10-12-----------------------|
------13--------------------------------13--------------13------------------------------------------|
-9-10----9-10----9-10----9-10------9-10----9-10----9-10----9-10----------------14-12----------------|
-------------------------------------------------------------------------------------15-14-15-10-12-|
----------------------------------------------------------------------------------------------------|
----------------------------------------------------------------------------------------------------|

Bridge
----------------------------------------------------------------------------------------------------|
----------------------------------------------------------------------------------------------------|
-/14\12/14/15\14\12/14---14\12/14/15\14\12\10---14\12/14/15\14\12/14--------------------------------|
------------------------------------------------------------------------8---7-----------------------|
-/12\10/12/13\12\10/12---12\10/12/13\12\10\8----12\10/12/13\12\10/12----8---7-----------------------|
------------------------------------------------------------------------8---7-----------------------|

I'm working on Seven days, but aint done it yet, if anyone has the lyrics for either of 
please email them to me

versprung@hotmail.com

Ta
comments
print report bad tab
20 comments total. Showing first comments.
0 reply
TeenBite wrote on February 10 2006, 10:04 am

When was this song released? I have their EP and album and haven't heard of it.

0 reply
TeenBite wrote on February 10 2006, 01:59 pm

Sorry, I'm an idiot. I should research before commenting...

0 reply
versprung wrote on February 11 2006, 09:03 am

yep, b side lol

I want to post or [tab]
guest
You may want to rate the tab now too:
select rating
Please do not post tabs as comments. Select "correction" instead!