Oops, an error
Loading. Please wait.

My Fist Your Mouth Her Scars tab

version 5
version 5
21,294 views 9 this week
7 commentsread comments
1 2 3 4 5
x 18
add to favorites
×
Save as Personal and add changes to this tab that will be seen only by you. Learn more ›
×
You can save this tab as Personal to edit and correct it or add notes. All changes will be seen only by you. Learn more »
launch autoscroll
font size
0
reset
how to read this tab
guitar tuner
backing track
0:00
0:00
edit
Autoscroll
slow
fast
+/-
esc
set tempo
stop
#----------------------------------PLEASE NOTE---------------------------------#
#This file is the author's own work and represents their interpretation of the #
#song. You may only use this file for private study, scholarship, or research. #
#------------------------------------------------------------------------------##

                         MY FIST, YOUR MOUTH, HER SCARS
                     As recorded by Bullet For My Valentine

Words and Music by Bullet For My Valentine

Gtr I (C G C F A D) - 'Track 1'
Gtr II (C G C F A D) - 'Track 2'

 Intro
  Q=96
 4/4
  Gtr I
  PM|   PM  PM------|   PM  PM--------|   PM  PM--|             ~~
  S S S S S S S S S S S S S S S S   S S S S S S S S  S S S  S S E.
|---------------------------------|--------------------------------|
|---------------------------------|--------------------------------|
|---------------------------------|--------------------------------|
|---------------------------------|-----------------10-8-7----7----|
|-----8---8-----------7---7-------|-----8---8--------------10---8--|
|-0-0---0---0-0-0-0-0---0---0-0-0-|-0-0---0---0-0-0----------------|
|
| Gtr II
| PM----------------------------------|
| S S E   E   S S S S E   E   S S   S S E   Q        H
|---------------------------------|--------------------------------|
|---------------------------------|--------------------------------|
|---------------------------------|--------------------------------|
|---------------------------------|--------------------------------|
|-0-0---------0-0-0-0---------0-0-|-0-0----------------------------|
|-0-0---------0-0-0-0---------0-0-|-0-0----------------------------|


  PM|   PM  PM------|   PM  PM--------|   PM  PM--|              ~~~
  S S S S S S S S S S S S S S S S   S S S S S S S S  S S S  S S  E.
|---------------------------------|----------------------------------|
|---------------------------------|----------------------------------|
|---------------------------------|----------------------------------|
|---------------------------------|-----------------10-8-7----7------|
|-----8---8-----------7---7-------|-----8---8--------------10---[8]--|
|-0-0---0---0-0-0-0-0---0---0-0-0-|-0-0---0---0-0-0------------------|
|
| PM----------------------------------|                          ~~~
| S S E   E   S S S S E   E   S S   S S E   Q        S S S  S S  E.
|---------------------------------|----------------------------------|
|---------------------------------|----------------------------------|
|---------------------------------|----------------------------------|
|---------------------------------|------------------7-5-------------|
|-0-0---------0-0-0-0---------0-0-|-0-0------------------8--7-8-[5]--|
|-0-0---------0-0-0-0---------0-0-|-0-0------------------------------|


  PM|   PM  PM------|   PM  PM--------|   PM  PM--|             ~~
  S S S S S S S S S S S S S S S S   S S S S S S S S  S S S  S S E.
|---------------------------------|---------------------------------|
|---------------------------------|---------------------------------|
|---------------------------------|---------------------------------|
|---------------------------------|-----------------10-8-7----7-----|
|-----8---8-----------7---7-------|-----8---8--------------10---8---|
|-0-0---0---0-0-0-0-0---0---0-0-0-|-0-0---0---0-0-0-----------------|
|
| PM----------------------------------|                         ~~
| S S E   E   S S S S E   E   S S   S S E   Q        S S S  S S E.
|---------------------------------|---------------------------------|
|---------------------------------|---------------------------------|
|---------------------------------|---------------------------------|
|---------------------------------|------------------7-5------------|
|-0-0---------0-0-0-0---------0-0-|-0-0------------------8--7-8-5---|
|-0-0---------0-0-0-0---------0-0-|-0-0-----------------------------|


  PM|    PM   PM------|    PM   PM--------|    PM   PM--|             ~~
  S S  S S  S S S S S S  S S  S S S S   S S  S S  S S S S  S S S  S S E.
|-------------------------------------|-----------------------------------|
|-------------------------------------|-----------------------------------|
|-------------------------------------|-----------------------------------|
|-------------------------------------|-------------------10-8-7----7-----|
|------8----8------------7----7-------|------8----8--------------10---8---|
|-0-0----0----0-0-0-0-0----0----0-0-0-|-0-0----0----0-0-0-----------------|
|
| PM|    PM   PM------|    PM   PM--------|    PM   PM----------------~~
| S S  S S  S S S S S S  S S  S S S S   S S  S S  S S S S  S S S  S S E.
|-------------------------------------|-----------------------------------|
|-------------------------------------|-----------------------------------|
|-------------------------------------|-----------------------------------|
|-------------------------------------|--------------------7-5------------|
|-----12---12-----------10---10-------|-----12---12------------8--7-8-5---|
|-0-0----0----0-0-0-0-0----0----0-0-0-|-0-0----0----0-0-0-----------------|


  PM|    PM   PM------|    PM   PM--------|    PM   PM----------------~~
  S S  S S  S S S S S S  S S  S S S S   S S  S S  S S S S  S S S  S S E.
|-------------------------------------|-----------------------------------|
|-------------------------------------|-----------------------------------|
|-------------------------------------|-----------------------------------|
|-------------------------------------|-------------------10-8-7----7-----|
|------8----8------------7----7-------|------8----8--------------10---8---|
|-0-0----0----0-0-0-0-0----0----0-0-0-|-0-0----0----0-0-0-----------------|
|
| PM|    PM   PM------|    PM   PM--------|    PM   PM--|             ~~
| S S  S S  S S S S S S  S S  S S S S   S S  S S  S S S S  S S S  S S E.
|-------------------------------------|-----------------------------------|
|-------------------------------------|-----------------------------------|
|-------------------------------------|-----------------------------------|
|-------------------------------------|--------------------7-5------------|
|-----12---12-----------10---10-------|-----12---12------------8--7-8-5---|
|-0-0----0----0-0-0-0-0----0----0-0-0-|-0-0----0----0-0-0-----------------|


  PM|    PM   PM------|    PM   PM--------|    PM   PM--|              ~~~
  S S  S S  S S S S S S  S S  S S S S   S S  S S  S S S S  S S S  S S  E.
|-------------------------------------|------------------------------------|
|-------------------------------------|------------------------------------|
|-------------------------------------|------------------------------------|
|-------------------------------------|-------------------10-8-7----7------|
|------8----8------------7----7-------|------8----8--------------10---[8]--|
|-0-0----0----0-0-0-0-0----0----0-0-0-|-0-0----0----0-0-0------------------|
|
| PM|    PM   PM------|    PM   PM--------|    PM   PM--|              ~~~
| S S  S S  S S S S S S  S S  S S S S   S S  S S  S S S S  S S S  S S  E.
|-------------------------------------|------------------------------------|
|-------------------------------------|------------------------------------|
|-------------------------------------|------------------------------------|
|-------------------------------------|--------------------7-5-------------|
|-----12---12-----------10---10-------|-----12---12------------8--7-8-[5]--|
|-0-0----0----0-0-0-0-0----0----0-0-0-|-0-0----0----0-0-0------------------|


  PM|    PM   PM------|    PM   PM--------|    PM   PM--|             ~~
  S S  S S  S S S S S S  S S  S S S S   S S  S S  S S S S  S S S  S S E.
|-------------------------------------|-----------------------------------|
|-------------------------------------|-----------------------------------|
|-------------------------------------|-----------------------------------|
|-------------------------------------|-------------------10-8-7----7-----|
|------8----8------------7----7-------|------8----8--------------10---8---|
|-0-0----0----0-0-0-0-0----0----0-0-0-|-0-0----0----0-0-0-----------------|
|
| PM|    PM   PM------|    PM   PM--------|    PM   PM--|             ~~
| S S  S S  S S S S S S  S S  S S S S   S S  S S  S S S S  S S S  S S E.
|-------------------------------------|-----------------------------------|
|-------------------------------------|-----------------------------------|
|-------------------------------------|-----------------------------------|
|-------------------------------------|--------------------7-5------------|
|-----12---12-----------10---10-------|-----12---12------------8--7-8-5---|
|-0-0----0----0-0-0-0-0----0----0-0-0-|-0-0----0----0-0-0-----------------|


  PM|    PM   PM------|    PM   PM--------|    PM   PM----------------~~
  S S  S S  S S S S S S  S S  S S S S   S S  S S  S S S S  S S S  S S E.
|-------------------------------------|-----------------------------------|
|-------------------------------------|-----------------------------------|
|-------------------------------------|-----------------------------------|
|-------------------------------------|-------------------10-8-7----7-----|
|------8----8------------7----7-------|------8----8--------------10---8---|
|-0-0----0----0-0-0-0-0----0----0-0-0-|-0-0----0----0-0-0-----------------|
|
| PM|    PM   PM------|    PM   PM--------|    PM   PM----------------~~
| S S  S S  S S S S S S  S S  S S S S   S S  S S  S S S S  S S S  S S E.
|-------------------------------------|-----------------------------------|
|-------------------------------------|-----------------------------------|
|-------------------------------------|-----------------------------------|
|-------------------------------------|--------------------7-5------------|
|-----12---12-----------10---10-------|-----12---12------------8--7-8-5---|
|-0-0----0----0-0-0-0-0----0----0-0-0-|-0-0----0----0-0-0-----------------|


 Verse
    PM----------|                    PM--------|
  S S S S S S S S  S E E  E S   +E   S S S S S S  S E E E S
|-----------------------------|-----------------------------|
|-----------------------------|-----------------------------|
|------------------------10-7-|-(7)\------------------------|
|-0---------------10-8-7-10-7-|-(7)\-------------10-8-7-1-0-|
|-0-0-0-0-0-0-0-0-10-8-7--8-5-|-(5)\-0-0-0-0-0-0-10-8-7-1-0-|
|-0-0-0-0-0-0-0-0-10-8-7------|------0-0-0-0-0-0-10-8-7-1-0-|
|
|   PM----------|                    PM--------|
| S S S S S S S S  S E E  E S   +E   S S S S S S  S E E E S
|-----------------------------|-----------------------------|
|-----------------------------|-----------------------------|
|------------------------10-7-|-(7)\------------------------|
|-0---------------10-8-7-10-7-|-(7)\-------------10-8-7-1-0-|
|-0-0-0-0-0-0-0-0-10-8-7--8-5-|-(5)\-0-0-0-0-0-0-10-8-7-1-0-|
|-0-0-0-0-0-0-0-0-10-8-7------|------0-0-0-0-0-0-10-8-7-1-0-|


  Gtrs I, II
      PM--------|
  +E  S S S S S S  S E E  E S   +S  E E E E E E E S
|-----------------------------|---------------------|
|-----------------------------|---------------------|
|------------------------10-7-|-(7)-7-8-8-5-5-------|
|-(0)-------------10-8-7-10-7-|-(7)-7-8-8-5-5-3-1-0-|
|-(0)-0-0-0-0-0-0-10-8-7--8-5-|-(5)-5-6-6-3-3-3-1-0-|
|-(0)-0-0-0-0-0-0-10-8-7------|---------------3-1-0-|


      PM----------|
  +S  S S S S S S S  S E E  E S   +E   S S S S S S  S E E E S
|-------------------------------|-----------------------------|
|-------------------------------|-----------------------------|
|--------------------------10-7-|-(7)\------------------------|
|-(0)---------------10-8-7-10-7-|-(7)\-------------10-8-7-1-0-|
|-(0)-0-0-0-0-0-0-0-10-8-7--8-5-|-(5)\-0-0-0-0-0-0-10-8-7-1-0-|
|-(0)-0-0-0-0-0-0-0-10-8-7------|------0-0-0-0-0-0-10-8-7-1-0-|


      PM--------|
  +E  S S S S S S  S E E  E S   +S  E E E E E E E S
|-----------------------------|---------------------|
|-----------------------------|---------------------|
|------------------------10-7-|-(7)-7-8-8-5-5-------|
|-(0)-------------10-8-7-10-7-|-(7)-7-8-8-5-5-3-1-0-|
|-(0)-0-0-0-0-0-0-10-8-7--8-5-|-(5)-5-6-6-3-3-3-1-0-|
|-(0)-0-0-0-0-0-0-10-8-7------|---------------3-1-0-|


 Pre-Chorus
  Gtr I
  +E  T T T T T T T T T T T T  T  T  T  T T T T T T T T T T T T T
|-----------------------------------------------------------------|
|-----------------------------------------------------------------|
|-----------------------------------------------------------------|
|-(0)-------------------------------------------------------------|
|-(0)-8-8-8-8-7-7-7-7-8-8-8-8-10-10-10-10-8-8-8-8-7-7-7-7-8-8-8-8-|
|-(0)-------------------------------------------------------------|
|
| Gtr II
| +E  T T T T T T T T T T T T  T  T  T  T T T T T T T T T T T T T
|-----------------------------------------------------------------|
|-----------------------------------------------------------------|
|-----------------------------------------------------------------|
|-(0)-7-7-7-7-5-5-5-5-7-7-7-7--8--8--8--8-7-7-7-7-5-5-5-5-7-7-7-7-|
|-(0)-------------------------------------------------------------|
|-(0)-------------------------------------------------------------|


  E T T T T T T T T T T T T E T T T T T T T T T T T T
|--------------------------------------------------------|
|--------------------------------------------------------|
|--------------------------------------------------------|
|--------------------------------------------------------|
|---8-8-8-8-7-7-7-7-8-8-8-8---8-8-8-8-7-7-7-7-8-8-8-8----|
|-8-------------------------7----------------------------|
|
| E T T T T T T T T T T T T E T T T T T T T T T T T T
|--------------------------------------------------------|
|--------------------------------------------------------|
|--------------------------------------------------------|
|---7-7-7-7-5-5-5-5-7-7-7-7---7-7-7-7-5-5-5-5-7-7-7-7----|
|-8-------------------------7----------------------------|
|--------------------------------------------------------|


  E T T T T T T T T T T T T  T  T  T  T T T T T T T T T T T T T
|---------------------------------------------------------------|
|---------------------------------------------------------------|
|---------------------------------------------------------------|
|-0-------------------------------------------------------------|
|-0-8-8-8-8-7-7-7-7-8-8-8-8-10-10-10-10-8-8-8-8-7-7-7-7-8-8-8-8-|
|-0-------------------------------------------------------------|
|
| E T T T T T T T T T T T T  T  T  T  T T T T T T T T T T T T T
|---------------------------------------------------------------|
|---------------------------------------------------------------|
|---------------------------------------------------------------|
|-0-7-7-7-7-5-5-5-5-7-7-7-7--8--8--8--8-7-7-7-7-5-5-5-5-7-7-7-7-|
|-0-------------------------------------------------------------|
|-0-------------------------------------------------------------|


  E T T T T T T T T T T T T E T T T T  T  T  T  T T T T T
|------------------------------------------------------------|
|------------------------------------------------------------|
|------------------------------------------------------------|
|------------------------------------------------------------|
|---8-8-8-8-7-7-7-7-8-8-8-8---8-8-8-8-10-10-10-10-7-7-7-7----|
|-8-------------------------7--------------------------------|
|
| E T T T T T T T T T T T T E T T T T  T  T  T  T T T T T
|------------------------------------------------------------|
|------------------------------------------------------------|
|------------------------------------------------------------|
|---7-7-7-7-5-5-5-5-7-7-7-7---7-7-7-7--8--8--8--8-5-5-5-5----|
|-8-------------------------7--------------------------------|
|------------------------------------------------------------|


 Chorus
  PM|    PM   PM------|    PM   PM--------|    PM   PM--|
  S S  S S  S S S S S S  S S  S S S S   S S  S S  S S S S  S S S  S S E.
|-------------------------------------|-----------------------------------|
|-------------------------------------|-----------------------------------|
|-------------------------------------|-----------------------------------|
|-------------------------------------|-------------------10-8-7----7-----|
|------8----8------------7----7-------|------8----8--------------10---8---|
|-0-0----0----0-0-0-0-0----0----0-0-0-|-0-0----0----0-0-0-----------------|
|
| PM|    PM   PM------|    PM   PM--------|    PM   PM--|
| S S  S S  S S S S S S  S S  S S S S   S S  S S  S S S S  S S S  S S E.
|-------------------------------------|-----------------------------------|
|-------------------------------------|-----------------------------------|
|-------------------------------------|-----------------------------------|
|-------------------------------------|--------------------7-5------------|
|-----12---12-----------10---10-------|-----12---12------------8--7-8-5---|
|-0-0----0----0-0-0-0-0----0----0-0-0-|-0-0----0----0-0-0-----------------|


  PM|    PM   PM------|    PM   PM--------|    PM   PM--|
  S S  S S  S S S S S S  S S  S S S S   S S  S S  S S S S  S S S  S S  E.
|-------------------------------------|------------------------------------|
|-------------------------------------|------------------------------------|
|-------------------------------------|------------------------------------|
|-------------------------------------|-------------------10-8-7----7------|
|------8----8------------7----7-------|------8----8--------------10---[8]--|
|-0-0----0----0-0-0-0-0----0----0-0-0-|-0-0----0----0-0-0------------------|
|
| PM|    PM   PM------|    PM   PM--------|    PM   PM--|
| S S  S S  S S S S S S  S S  S S S S   S S  S S  S S S S  S S S  S S  E.
|-------------------------------------|------------------------------------|
|-------------------------------------|------------------------------------|
|-------------------------------------|------------------------------------|
|-------------------------------------|--------------------7-5-------------|
|-----12---12-----------10---10-------|-----12---12------------8--7-8-[5]--|
|-0-0----0----0-0-0-0-0----0----0-0-0-|-0-0----0----0-0-0------------------|


  PM|    PM   PM------|    PM   PM--------|    PM   PM--|
  S S  S S  S S S S S S  S S  S S S S   S S  S S  S S S S  S S S  S S E.
|-------------------------------------|-----------------------------------|
|-------------------------------------|-----------------------------------|
|-------------------------------------|-----------------------------------|
|-------------------------------------|-------------------10-8-7----7-----|
|------8----8------------7----7-------|------8----8--------------10---8---|
|-0-0----0----0-0-0-0-0----0----0-0-0-|-0-0----0----0-0-0-----------------|
|
| PM|    PM   PM------|    PM   PM--------|    PM   PM--|
| S S  S S  S S S S S S  S S  S S S S   S S  S S  S S S S  S S S  S S E.
|-------------------------------------|-----------------------------------|
|-------------------------------------|-----------------------------------|
|-------------------------------------|-----------------------------------|
|-------------------------------------|--------------------7-5------------|
|-----12---12-----------10---10-------|-----12---12------------8--7-8-5---|
|-0-0----0----0-0-0-0-0----0----0-0-0-|-0-0----0----0-0-0-----------------|


  PM|    PM   PM------|    PM   PM--------|    PM   PM--|
  S S  S S  S S S S S S  S S  S S S S   S S  S S  S S S S  S S S  S S E.
|-------------------------------------|-----------------------------------|
|-------------------------------------|-----------------------------------|
|-------------------------------------|-----------------------------------|
|-------------------------------------|-------------------10-8-7----7-----|
|------8----8------------7----7-------|------8----8--------------10---8---|
|-0-0----0----0-0-0-0-0----0----0-0-0-|-0-0----0----0-0-0-----------------|
|
| PM|    PM   PM------|    PM   PM--------|    PM   PM--|
| S S  S S  S S S S S S  S S  S S S S   S S  S S  S S S S  S S S  S S E.
|-------------------------------------|-----------------------------------|
|-------------------------------------|-----------------------------------|
|-------------------------------------|-----------------------------------|
|-------------------------------------|--------------------7-5------------|
|-----12---12-----------10---10-------|-----12---12------------8--7-8-5---|
|-0-0----0----0-0-0-0-0----0----0-0-0-|-0-0----0----0-0-0-----------------|


 Verse
    PM----------|
  S S S S S S S S  S E E  E S   +E   S S S S S S  S E E E S
|-----------------------------|-----------------------------|
|-----------------------------|-----------------------------|
|------------------------10-7-|-(7)\------------------------|
|-0---------------10-8-7-10-7-|-(7)\-------------10-8-7-1-0-|
|-0-0-0-0-0-0-0-0-10-8-7--8-5-|-(5)\-0-0-0-0-0-0-10-8-7-1-0-|
|-0-0-0-0-0-0-0-0-10-8-7------|------0-0-0-0-0-0-10-8-7-1-0-|
|
|   PM----------|
| S S S S S S S S  S E E  E S   +E   S S S S S S  S E E E S
|-----------------------------|-----------------------------|
|-----------------------------|-----------------------------|
|------------------------10-7-|-(7)\------------------------|
|-0---------------10-8-7-10-7-|-(7)\-------------10-8-7-1-0-|
|-0-0-0-0-0-0-0-0-10-8-7--8-5-|-(5)\-0-0-0-0-0-0-10-8-7-1-0-|
|-0-0-0-0-0-0-0-0-10-8-7------|------0-0-0-0-0-0-10-8-7-1-0-|


  Gtrs I, II
      PM--------|
  +E  S S S S S S  S E E  E S   +S  E E E E E E E S
|-----------------------------|---------------------|
|-----------------------------|---------------------|
|------------------------10-7-|-(7)-7-8-8-5-5-------|
|-(0)-------------10-8-7-10-7-|-(7)-7-8-8-5-5-3-1-0-|
|-(0)-0-0-0-0-0-0-10-8-7--8-5-|-(5)-5-6-6-3-3-3-1-0-|
|-(0)-0-0-0-0-0-0-10-8-7------|---------------3-1-0-|


      PM----------|
  +S  S S S S S S S  S E E  E S   +E   S S S S S S  S E E E S
|-------------------------------|-----------------------------|
|-------------------------------|-----------------------------|
|--------------------------10-7-|-(7)\------------------------|
|-(0)---------------10-8-7-10-7-|-(7)\-------------10-8-7-1-0-|
|-(0)-0-0-0-0-0-0-0-10-8-7--8-5-|-(5)\-0-0-0-0-0-0-10-8-7-1-0-|
|-(0)-0-0-0-0-0-0-0-10-8-7------|------0-0-0-0-0-0-10-8-7-1-0-|


      PM--------|
  +E  S S S S S S  S E E  E S   +S  E E E E E E E S
|-----------------------------|---------------------|
|-----------------------------|---------------------|
|------------------------10-7-|-(7)-7-8-8-5-5-------|
|-(0)-------------10-8-7-10-7-|-(7)-7-8-8-5-5-3-1-0-|
|-(0)-0-0-0-0-0-0-10-8-7--8-5-|-(5)-5-6-6-3-3-3-1-0-|
|-(0)-0-0-0-0-0-0-10-8-7------|---------------3-1-0-|


 Pre-Chorus
  Gtr I
  +E  T T T T T T T T T T T T  T  T  T  T T T T T T T T T T T T T
|-----------------------------------------------------------------|
|-----------------------------------------------------------------|
|-----------------------------------------------------------------|
|-(0)-------------------------------------------------------------|
|-(0)-8-8-8-8-7-7-7-7-8-8-8-8-10-10-10-10-8-8-8-8-7-7-7-7-8-8-8-8-|
|-(0)-------------------------------------------------------------|
|
| Gtr II
| +E  T T T T T T T T T T T T  T  T  T  T T T T T T T T T T T T T
|-----------------------------------------------------------------|
|-----------------------------------------------------------------|
|-----------------------------------------------------------------|
|-(0)-7-7-7-7-5-5-5-5-7-7-7-7--8--8--8--8-7-7-7-7-5-5-5-5-7-7-7-7-|
|-(0)-------------------------------------------------------------|
|-(0)-------------------------------------------------------------|


  E T T T T T T T T T T T T E T T T T T T T T T T T T
|--------------------------------------------------------|
|--------------------------------------------------------|
|--------------------------------------------------------|
|--------------------------------------------------------|
|---8-8-8-8-7-7-7-7-8-8-8-8---8-8-8-8-7-7-7-7-8-8-8-8----|
|-8-------------------------7----------------------------|
|
| E T T T T T T T T T T T T E T T T T T T T T T T T T
|--------------------------------------------------------|
|--------------------------------------------------------|
|--------------------------------------------------------|
|---7-7-7-7-5-5-5-5-7-7-7-7---7-7-7-7-5-5-5-5-7-7-7-7----|
|-8-------------------------7----------------------------|
|--------------------------------------------------------|


  E T T T T T T T T T T T T  T  T  T  T T T T T T T T T T T T T
|---------------------------------------------------------------|
|---------------------------------------------------------------|
|---------------------------------------------------------------|
|-0-------------------------------------------------------------|
|-0-8-8-8-8-7-7-7-7-8-8-8-8-10-10-10-10-8-8-8-8-7-7-7-7-8-8-8-8-|
|-0-------------------------------------------------------------|
|
| E T T T T T T T T T T T T  T  T  T  T T T T T T T T T T T T T
|---------------------------------------------------------------|
|---------------------------------------------------------------|
|---------------------------------------------------------------|
|-0-7-7-7-7-5-5-5-5-7-7-7-7--8--8--8--8-7-7-7-7-5-5-5-5-7-7-7-7-|
|-0-------------------------------------------------------------|
|-0-------------------------------------------------------------|


  E T T T T T T T T T T T T E T T T T  T  T  T  T T T T T
|------------------------------------------------------------|
|------------------------------------------------------------|
|------------------------------------------------------------|
|------------------------------------------------------------|
|---8-8-8-8-7-7-7-7-8-8-8-8---8-8-8-8-10-10-10-10-7-7-7-7----|
|-8-------------------------7--------------------------------|
|
| E T T T T T T T T T T T T E T T T T  T  T  T  T T T T T
|------------------------------------------------------------|
|------------------------------------------------------------|
|------------------------------------------------------------|
|---7-7-7-7-5-5-5-5-7-7-7-7---7-7-7-7--8--8--8--8-5-5-5-5----|
|-8-------------------------7--------------------------------|
|------------------------------------------------------------|


 Chorus
  PM|    PM   PM------|    PM   PM--------|    PM   PM--|
  S S  S S  S S S S S S  S S  S S S S   S S  S S  S S S S  S S S  S S E.
|-------------------------------------|-----------------------------------|
|-------------------------------------|-----------------------------------|
|-------------------------------------|-----------------------------------|
|-------------------------------------|-------------------10-8-7----7-----|
|------8----8------------7----7-------|------8----8--------------10---8---|
|-0-0----0----0-0-0-0-0----0----0-0-0-|-0-0----0----0-0-0-----------------|
|
| PM|    PM   PM------|    PM   PM--------|    PM   PM--|
| S S  S S  S S S S S S  S S  S S S S   S S  S S  S S S S  S S S  S S E.
|-------------------------------------|-----------------------------------|
|-------------------------------------|-----------------------------------|
|-------------------------------------|-----------------------------------|
|-------------------------------------|--------------------7-5------------|
|-----12---12-----------10---10-------|-----12---12------------8--7-8-5---|
|-0-0----0----0-0-0-0-0----0----0-0-0-|-0-0----0----0-0-0-----------------|


  PM|    PM   PM------|    PM   PM--------|    PM   PM--|
  S S  S S  S S S S S S  S S  S S S S   S S  S S  S S S S  S S S  S S  E.
|-------------------------------------|------------------------------------|
|-------------------------------------|------------------------------------|
|-------------------------------------|------------------------------------|
|-------------------------------------|-------------------10-8-7----7------|
|------8----8------------7----7-------|------8----8--------------10---[8]--|
|-0-0----0----0-0-0-0-0----0----0-0-0-|-0-0----0----0-0-0------------------|
|
| PM|    PM   PM------|    PM   PM--------|    PM   PM--|
| S S  S S  S S S S S S  S S  S S S S   S S  S S  S S S S  S S S  S S  E.
|-------------------------------------|------------------------------------|
|-------------------------------------|------------------------------------|
|-------------------------------------|------------------------------------|
|-------------------------------------|--------------------7-5-------------|
|-----12---12-----------10---10-------|-----12---12------------8--7-8-[5]--|
|-0-0----0----0-0-0-0-0----0----0-0-0-|-0-0----0----0-0-0------------------|


  PM|    PM   PM------|    PM   PM--------|    PM   PM--|
  S S  S S  S S S S S S  S S  S S S S   S S  S S  S S S S  S S S  S S E.
|-------------------------------------|-----------------------------------|
|-------------------------------------|-----------------------------------|
|-------------------------------------|-----------------------------------|
|-------------------------------------|-------------------10-8-7----7-----|
|------8----8------------7----7-------|------8----8--------------10---8---|
|-0-0----0----0-0-0-0-0----0----0-0-0-|-0-0----0----0-0-0-----------------|
|
| PM|    PM   PM------|    PM   PM--------|    PM   PM--|
| S S  S S  S S S S S S  S S  S S S S   S S  S S  S S S S  S S S  S S E.
|-------------------------------------|-----------------------------------|
|-------------------------------------|-----------------------------------|
|-------------------------------------|-----------------------------------|
|-------------------------------------|--------------------7-5------------|
|-----12---12-----------10---10-------|-----12---12------------8--7-8-5---|
|-0-0----0----0-0-0-0-0----0----0-0-0-|-0-0----0----0-0-0-----------------|


  PM|    PM   PM------|    PM   PM--------|    PM   PM--|
  S S  S S  S S S S S S  S S  S S S S   S S  S S  S S S S  S S S  S S E.
|-------------------------------------|-----------------------------------|
|-------------------------------------|-----------------------------------|
|-------------------------------------|-----------------------------------|
|-------------------------------------|-------------------10-8-7----7-----|
|------8----8------------7----7-------|------8----8--------------10---8---|
|-0-0----0----0-0-0-0-0----0----0-0-0-|-0-0----0----0-0-0-----------------|
|
| PM|    PM   PM------|    PM   PM--------|    PM   PM--|
| S S  S S  S S S S S S  S S  S S S S   S S  S S  S S S S  S S S  S S E.
|-------------------------------------|-----------------------------------|
|-------------------------------------|-----------------------------------|
|-------------------------------------|-----------------------------------|
|-------------------------------------|--------------------7-5------------|
|-----12---12-----------10---10-------|-----12---12------------8--7-8-5---|
|-0-0----0----0-0-0-0-0----0----0-0-0-|-0-0----0----0-0-0-----------------|


 Guitar Solo
        T       T       T      T
   S S  S  S S  S  S S  S S S  S  +Q
|------------------------------------------|
|--5h6-13--5h6-15--5h6-13-5h6-15-(15)------|
|------------------------------------------|
|------------------------------------------|
|------------------------------------------|
|------------------------------------------|
|
|  E.      E.      H                   +E
|------------------------------------------|
|------------------------------------------|
|-12------12------12------------------(12)-|
|-12------12------12------------------(12)-|
|-10------10------10------------------(10)-|
|-10------10------10------------------(10)-|


        T       T       T      T                       T
   S S  S  S S  S  S S  S S S  S  +Q          +S  S S  Q.           S E   Q
|------------------------------------------|-----------------------------------------|
|--5h6-13--5h6-15--5h6-13-5h6-17-(17)------|-(17)-5h6-18-----------------------------|
|------------------------------------------|-----------------------------------------|
|------------------------------------------|-----------------------------------------|
|------------------------------------------|-----------------------------------------|
|------------------------------------------|-----------------------------------------|
|
|                                              PM---------|
|  E.      E.      H                   +E      S  S S  S  S S S S S S S S S S  S  S
|------------------------------------------|-----------------------------------------|
|------------------------------------------|-----------------------------------------|
|-12------12------12------------------(12)-|-----------------------------------------|
|-12------12------12------------------(12)-|-----------------------------------------|
|-10------10------10------------------(10)-|---0--0-0--0--0-8-7-5-3-5-3-0-8-0-10h12--|
|-10------10------10------------------(10)-|---0--0-0--0--0--------------------------|


   |---3----|   |---3----|
   e   e    e   e    e   e   t q.           +s.
|-----------------------------------------------|
|-10---8----------------------------------------|
|----------10---9---10---5---5S7------------(7)-|
|-----------------------------------------------|
|-----------------------------------------------|
|-----------------------------------------------|
|
|  PM-----------|
|  S S   S    S S S    S   S S    S S S +Q
|-----------------------------------------------|
|-----------------------------------------------|
|-----------------------------------------------|
|-----------------------------------------------|
|--0-0---0----0-0-8----7---5-3----5-------------|
|--0-0---0----0-0-------------------3p0-(0)-----|


        T       T       T      T
   S S  S  S S  S  S S  S S S  S  +Q
|-------------------------------------------|
|--5h6-13--5h6-15--5h6-17-5h6-20-(20)-------|
|-------------------------------------------|
|-------------------------------------------|
|-------------------------------------------|
|-------------------------------------------|
|
|  E.      E.      H                   +E
|-------------------------------------------|
|-------------------------------------------|
|-12------12------12------------------(12)--|
|-12------12------12------------------(12)--|
|-10------10------10------------------(10)--|
|-10------10------10------------------(10)--|


        T       T       T      T
   S S  S  S S  S  S S  S S S  S  +Q
|------------------------------------------|
|--5h6-13--5h6-15--5h6-13-5h6-20-(20)------|
|------------------------------------------|
|------------------------------------------|
|------------------------------------------|
|------------------------------------------|
|
|  E.      E.      H                   +E
|------------------------------------------|
|------------------------------------------|
|-12------12------12------------------(12)-|
|-12------12------12------------------(12)-|
|-10------10------10------------------(10)-|
|-10------10------10------------------(10)-|


            T
   +S  S S  Q.           S E   Q
|-----------------------------------------|
|-(20)-5h6-18-----------------------------|
|-----------------------------------------|
|-----------------------------------------|
|-----------------------------------------|
|-----------------------------------------|
|
|   PM---------|
|   S  S S  S  S S S S S S S S S S  S  S
|-----------------------------------------|
|-----------------------------------------|
|-----------------------------------------|
|-----------------------------------------|
|---0--0-0--0--0-8-7-5-3-5-3-0-8-0-10h12--|
|---0--0-0--0--0--------------------------|


   |---3----|   |---3----|
   e   e    e   e    e   e   t q.           +s.
|-----------------------------------------------|
|-10---8----------------------------------------|
|----------10---9---10---5---5S7------------(7)-|
|-----------------------------------------------|
|-----------------------------------------------|
|-----------------------------------------------|
|
|  PM-----------|
|  S S   S    S S S    S   S S    S S S +Q
|-----------------------------------------------|
|-----------------------------------------------|
|-----------------------------------------------|
|-----------------------------------------------|
|--0-0---0----0-0-8----7---5-3----5-------------|
|--0-0---0----0-0-------------------3p0-(0)-----|


 Pre-Chorus
  E T T T T T T T T T T T T  T  T  T  T T T T T T T T T T T T T
|---------------------------------------------------------------|
|---------------------------------------------------------------|
|---------------------------------------------------------------|
|-0-------------------------------------------------------------|
|-0-8-8-8-8-7-7-7-7-8-8-8-8-10-10-10-10-8-8-8-8-7-7-7-7-8-8-8-8-|
|-0-------------------------------------------------------------|
|
| E T T T T T T T T T T T T  T  T  T  T T T T T T T T T T T T T
|---------------------------------------------------------------|
|---------------------------------------------------------------|
|---------------------------------------------------------------|
|-0-7-7-7-7-5-5-5-5-7-7-7-7--8--8--8--8-7-7-7-7-5-5-5-5-7-7-7-7-|
|-0-------------------------------------------------------------|
|-0-------------------------------------------------------------|


  E T T T T T T T T T T T T E T T T T T T T T T T T T
|--------------------------------------------------------|
|--------------------------------------------------------|
|--------------------------------------------------------|
|--------------------------------------------------------|
|---8-8-8-8-7-7-7-7-8-8-8-8---8-8-8-8-7-7-7-7-8-8-8-8----|
|-8-------------------------7----------------------------|
|
| E T T T T T T T T T T T T E T T T T T T T T T T T T
|--------------------------------------------------------|
|--------------------------------------------------------|
|--------------------------------------------------------|
|---7-7-7-7-5-5-5-5-7-7-7-7---5-5-5-5-7-7-7-7-5-5-5-5----|
|-8-------------------------7----------------------------|
|--------------------------------------------------------|


  E T T T T T T T T T T T T  T  T  T  T T T T T T T T T T T T T
|---------------------------------------------------------------|
|---------------------------------------------------------------|
|---------------------------------------------------------------|
|-0-------------------------------------------------------------|
|-0-8-8-8-8-7-7-7-7-8-8-8-8-10-10-10-10-8-8-8-8-7-7-7-7-8-8-8-8-|
|-0-------------------------------------------------------------|
|
| E T T T T T T T T T T T T  T  T  T  T T T T T T T T T T T T T
|---------------------------------------------------------------|
|---------------------------------------------------------------|
|---------------------------------------------------------------|
|-0-7-7-7-7-5-5-5-5-7-7-7-7--8--8--8--8-7-7-7-7-5-5-5-5-7-7-7-7-|
|-0-------------------------------------------------------------|
|-0-------------------------------------------------------------|


  E E Q  E E Q
|----------------|
|----------------|
|----------------|
|-8------7-------|
|-8------7-------|
|-8------7-------|
|
| E E Q  E E Q
|----------------|
|----------------|
|----------------|
|-8------7-------|
|-8------7-------|
|-8------7-------|


 Verse
  Gtrs I, II
    PM----------|                    PM--------|
  S S S S S S S S  S E E  E S   +E   S S S S S S  S E E E S
|-----------------------------|-----------------------------|
|-----------------------------|-----------------------------|
|------------------------10-7-|-(7)\------------------------|
|-0---------------10-8-7-10-7-|-(7)\-------------10-8-7-1-0-|
|-0-0-0-0-0-0-0-0-10-8-7--8-5-|-(5)\-0-0-0-0-0-0-10-8-7-1-0-|
|-0-0-0-0-0-0-0-0-10-8-7------|------0-0-0-0-0-0-10-8-7-1-0-|


      PM--------|
  +E  S S S S S S  S E E  E S   +S  E E E E E E  E  S
|-----------------------------|-----------------------|
|-----------------------------|-----------------------|
|------------------------10-7-|-(7)-7-8-8-5-5---------|
|-(0)-------------10-8-7-10-7-|-(7)-7-8-8-5-5-3-----0-|
|-(0)-0-0-0-0-0-0-10-8-7--8-5-|-(5)-5-6-6-3-3-3-----0-|
|-(0)-0-0-0-0-0-0-10-8-7------|---------------3-[3]-0-|


      PM----------|
  +S  S S S S S S S  S E E  E S   +E   S S S S S S S E E E S
|-------------------------------|----------------------------|
|-------------------------------|----------------------------|
|--------------------------10-7-|-(7)\-------------5-3-2-----|
|-(0)---------------10-8-7-10-7-|-(7)\-------------5-3-2-1-0-|
|-(0)-0-0-0-0-0-0-0-10-8-7--8-5-|-(5)\-0-0-0-0-0-0-3-1-0-1-0-|
|-(0)-0-0-0-0-0-0-0-10-8-7------|------0-0-0-0-0-0-------1-0-|


      PM--------|
  +E  S S S S S S  S E E  E S   +S  E E E E E E E S
|-----------------------------|---------------------|
|-----------------------------|---------------------|
|------------------------10-7-|-(7)-7-8-8-5-5-------|
|-(0)-------------10-8-7-10-7-|-(7)-7-8-8-5-5-3-1-0-|
|-(0)-0-0-0-0-0-0-10-8-7--8-5-|-(5)-5-6-6-3-3-3-1-0-|
|-(0)-0-0-0-0-0-0-10-8-7------|---------------3-1-0-|


 Pre-Chorus
  Gtr I
  +E  T T T T T T T T T T T T  T  T  T  T T T T T T T T T T T T T
|-----------------------------------------------------------------|
|-----------------------------------------------------------------|
|-----------------------------------------------------------------|
|-(0)-------------------------------------------------------------|
|-(0)-8-8-8-8-7-7-7-7-8-8-8-8-10-10-10-10-8-8-8-8-7-7-7-7-8-8-8-8-|
|-(0)-------------------------------------------------------------|
|
| Gtr II
| +E  E       Q                H
|-----------------------------------------------------------------|
|-----------------------------------------------------------------|
|-----------------------------------------------------------------|
|-(0)-------------------------------------------------------------|
|-(0)-------------------------------------------------------------|
|-(0)-------------------------------------------------------------|


  E T T T T T T T T T T T T E T T T T T T T T T T T T
|--------------------------------------------------------|
|--------------------------------------------------------|
|--------------------------------------------------------|
|--------------------------------------------------------|
|---8-8-8-8-7-7-7-7-8-8-8-8---8-8-8-8-7-7-7-7-8-8-8-8----|
|-8-------------------------7----------------------------|
|
| E E       Q               E E       Q
|--------------------------------------------------------|
|--------------------------------------------------------|
|--------------------------------------------------------|
|-8-------------------------7----------------------------|
|-8-------------------------7----------------------------|
|-8-------------------------7----------------------------|


  E T T T T T T T T T T T T  T  T  T  T T T T T T T T T T T T T
|---------------------------------------------------------------|
|---------------------------------------------------------------|
|---------------------------------------------------------------|
|-0-------------------------------------------------------------|
|-0-8-8-8-8-7-7-7-7-8-8-8-8-10-10-10-10-8-8-8-8-7-7-7-7-8-8-8-8-|
|-0-------------------------------------------------------------|
|
| W
|---------------------------------------------------------------|
|---------------------------------------------------------------|
|---------------------------------------------------------------|
|-0-------------------------------------------------------------|
|-0-------------------------------------------------------------|
|-0-------------------------------------------------------------|


  E E Q  E E Q
|----------------|
|----------------|
|----------------|
|-8------7-------|
|-8------7-------|
|-8------7-------|
|
| E E Q  E E Q
|----------------|
|----------------|
|----------------|
|-8------7-------|
|-8------7-------|
|-8------7-------|


  E T T T T T T T T T T T T  T  T  T  T T T T T T T T T T T T T
|---------------------------------------------------------------|
|---------------------------------------------------------------|
|---------------------------------------------------------------|
|-0-------------------------------------------------------------|
|-0-8-8-8-8-7-7-7-7-8-8-8-8-10-10-10-10-8-8-8-8-7-7-7-7-8-8-8-8-|
|-0-------------------------------------------------------------|
|
| E T T T T T T T T T T T T  T  T  T  T T T T T T T T T T T T T
|---------------------------------------------------------------|
|---------------------------------------------------------------|
|---------------------------------------------------------------|
|-0-7-7-7-7-5-5-5-5-7-7-7-7--8--8--8--8-7-7-7-7-5-5-5-5-7-7-7-7-|
|-0-------------------------------------------------------------|
|-0-------------------------------------------------------------|


  E T T T T T T T T T T T T E T T T T T T T T T T T T
|--------------------------------------------------------|
|--------------------------------------------------------|
|--------------------------------------------------------|
|--------------------------------------------------------|
|---8-8-8-8-7-7-7-7-8-8-8-8---8-8-8-8-7-7-7-7-8-8-8-8----|
|-8-------------------------7----------------------------|
|
| E T T T T T T T T T T T T E T T T T T T T T T T T T
|--------------------------------------------------------|
|--------------------------------------------------------|
|--------------------------------------------------------|
|---7-7-7-7-5-5-5-5-7-7-7-7---7-7-7-7-5-5-5-5-7-7-7-7----|
|-8-------------------------7----------------------------|
|--------------------------------------------------------|


  E T T T T T T T T T T T T  T  T  T  T T T T T T T T T T T T T
|---------------------------------------------------------------|
|---------------------------------------------------------------|
|---------------------------------------------------------------|
|-0-------------------------------------------------------------|
|-0-8-8-8-8-7-7-7-7-8-8-8-8-10-10-10-10-8-8-8-8-7-7-7-7-8-8-8-8-|
|-0-------------------------------------------------------------|
|
| E T T T T T T T T T T T T  T  T  T  T T T T T T T T T T T T T
|---------------------------------------------------------------|
|---------------------------------------------------------------|
|---------------------------------------------------------------|
|-0-7-7-7-7-5-5-5-5-7-7-7-7--8--8--8--8-7-7-7-7-5-5-5-5-7-7-7-7-|
|-0-------------------------------------------------------------|
|-0-------------------------------------------------------------|


  E T T T T T T T T T T T T E T T T T  T  T  T  T T T T T
|------------------------------------------------------------|
|------------------------------------------------------------|
|------------------------------------------------------------|
|------------------------------------------------------------|
|---8-8-8-8-7-7-7-7-8-8-8-8---8-8-8-8-10-10-10-10-7-7-7-7----|
|-8-------------------------7--------------------------------|
|
| E T T T T T T T T T T T T E T T T T  T  T  T  T T T T T
|------------------------------------------------------------|
|------------------------------------------------------------|
|------------------------------------------------------------|
|---7-7-7-7-5-5-5-5-7-7-7-7---7-7-7-7--8--8--8--8-5-5-5-5----|
|-8-------------------------7--------------------------------|
|------------------------------------------------------------|


 Chorus
  PM|    PM   PM------|    PM   PM--------|    PM   PM--|
  S S  S S  S S S S S S  S S  S S S S   S S  S S  S S S S  S S S  S S E.
|-------------------------------------|-----------------------------------|
|-------------------------------------|-----------------------------------|
|-------------------------------------|-----------------------------------|
|-------------------------------------|-------------------10-8-7----7-----|
|------8----8------------7----7-------|------8----8--------------10---8---|
|-0-0----0----0-0-0-0-0----0----0-0-0-|-0-0----0----0-0-0-----------------|
|
| PM|    PM   PM------|    PM   PM--------|    PM   PM--|
| S S  S S  S S S S S S  S S  S S S S   S S  S S  S S S S  S S S  S S E.
|-------------------------------------|-----------------------------------|
|-------------------------------------|-----------------------------------|
|-------------------------------------|-----------------------------------|
|-------------------------------------|--------------------7-5------------|
|-----12---12-----------10---10-------|-----12---12------------8--7-8-5---|
|-0-0----0----0-0-0-0-0----0----0-0-0-|-0-0----0----0-0-0-----------------|


  PM|    PM   PM------|    PM   PM--------|    PM   PM--|
  S S  S S  S S S S S S  S S  S S S S   S S  S S  S S S S  S S S  S S  E.
|-------------------------------------|------------------------------------|
|-------------------------------------|------------------------------------|
|-------------------------------------|------------------------------------|
|-------------------------------------|-------------------10-8-7----7------|
|------8----8------------7----7-------|------8----8--------------10---[8]--|
|-0-0----0----0-0-0-0-0----0----0-0-0-|-0-0----0----0-0-0------------------|
|
| PM|    PM   PM------|    PM   PM--------|    PM   PM--|
| S S  S S  S S S S S S  S S  S S S S   S S  S S  S S S S  S S S  S S  E.
|-------------------------------------|------------------------------------|
|-------------------------------------|------------------------------------|
|-------------------------------------|------------------------------------|
|-------------------------------------|--------------------7-5-------------|
|-----12---12-----------10---10-------|-----12---12------------8--7-8-[5]--|
|-0-0----0----0-0-0-0-0----0----0-0-0-|-0-0----0----0-0-0------------------|


 Outro
  PM|   PM  PM------|   PM  PM--------|   PM  PM--|
  S S S S S S S S S S S S S S S S   S S S S S S S S  S S S  S S E.
|---------------------------------|---------------------------------|
|---------------------------------|---------------------------------|
|---------------------------------|---------------------------------|
|---------------------------------|-----------------10-8-7----7-----|
|-----8---8-----------7---7-------|-----8---8--------------10---8---|
|-0-0---0---0-0-0-0-0---0---0-0-0-|-0-0---0---0-0-0-----------------|
|
| PM----------------|         PM------|
| S S E   E   S S S S E   E   S S   S S E   Q        S S S  S S E.
|---------------------------------|---------------------------------|
|---------------------------------|---------------------------------|
|---------------------------------|---------------------------------|
|---------------------------------|------------------7-5------------|
|-0-0---------0-0-0-0---------0-0-|-0-0------------------8--7-8-5---|
|-0-0---------0-0-0-0---------0-0-|-0-0-----------------------------|


  PM|    PM   PM------|    PM   PM--------|    PM   PM--|
  S S  S S  S S S S S S  S S  S S S S   S S  S S  S S S S  S S S  S S E.
|-------------------------------------|-----------------------------------*|
|-------------------------------------|-----------------------------------*|
|-------------------------------------|-----------------------------------*|
|-------------------------------------|-------------------10-8-7----7-----*|
|------8----8------------7----7-------|------8----8--------------10---8---*|
|-0-0----0----0-0-0-0-0----0----0-0-0-|-0-0----0----0-0-0-----------------*|
|
| PM|    PM   PM------|    PM   PM--------|    PM   PM--|
| S S  S S  S S S S S S  S S  S S S S   S S  S S  S S S S  S S S  S S E.
|-------------------------------------|-----------------------------------*|
|-------------------------------------|-----------------------------------*|
|-------------------------------------|-----------------------------------*|
|-------------------------------------|--------------------7-5------------*|
|-----12---12-----------10---10-------|-----12---12------------8--7-8-5---*|
|-0-0----0----0-0-0-0-0----0----0-0-0-|-0-0----0----0-0-0-----------------*|


Duration Legend
---------------
W - whole; H - half; Q - quarter; E - 8th; S - 16th; T - 32nd; X - 64th; a - acciaccatura
+ - note tied to previous; . - note dotted; .. - note double dotted
Uncapitalized letters represent notes that are staccato (1/2 duration)
Irregular groupings are notated above the duration line
Duration letters will always appear directly above the note/fret number it represents the
duration for.  Duration letters with no fret number below them represent rests.  Multi-
bar rests are notated in the form Wxn, where n is the number of bars to rest for.  Low
melody durations appear below the staff

Tablature Legend
----------------
 h   - hammer-on
 p   - pull-off
 b   - bend
 pb  - pre-bend
 r   - bend release (if no number after the r, then release immediately)
 /\  - slide into or out of (from/to "nowhere")
 s   - legato slide
 S   - shift slide
  - natural harmonic
[n]  - artificial harmonic
n(n) - tapped harmonic
 ~   - vibrato
 tr  - trill
 T   - tap
 TP  - trem. picking
 PM  - palm muting
\n/  - tremolo bar dip; n = amount to dip
 \n  - tremolo bar down
 n/  - tremolo bar up
/n\  - tremolo bar inverted dip
 =   - hold bend; also acts as connecting device for hammers/pulls
 <>  - volume swell (louder/softer)
 x   - on rhythm slash represents muted slash
 o   - on rhythm slash represents single note slash

Misc Legend
-----------
 |  - bar
||  - double bar
||o - repeat start
o|| - repeat end
*|  - double bar (ending)
 :  - bar (freetime)
 $  - Segno
 &  - Coda
Tempo markers -  = BPM(8/16=s8/s16), where s8 = swing 8ths, s16 = swing 16ths

            
            
Suggest correction
Creating personal tab
Creating personal tab
You can edit any tab online and save it as your Personal.

You can edit, replace or remove any tab part or add personal notes – all changes will be seen only by you.

Personal tabs can be accessed anytime from any device, even offline.
Learn more »
comments
print report bad tab
7 comments total. Showing first comments.
0 reply
aussieandproud 10 Dec 14, 2009 01:32 AM

good job ,perfect tab 5*

0 reply
Ninja Jeff 10 Mar 01, 2010 11:05 AM

that wuz great dude thanx

0 reply
bmth13 10 Mar 02, 2010 07:53 AM

i think my printer would burst into fire if i printed this.

guest
You may want to rate the tab now too:
select rating
Wanna post a correction for this tab? Suggest correction