Oops, an error
Loading. Please wait.

No Control bass

version 1
version 1

Whole song

Interactive

2,614 views 1 this week
2 commentsread comments
1 2 3 4 5
2 more votes to show rating
add to favorites
×
Save as Personal and add changes to this tab that will be seen only by you. Learn more ›
×
You can save this tab as Personal to edit and correct it or add notes. All changes will be seen only by you. Learn more »
launch autoscroll
font size
0
reset
guitar tuner
backing track
0:00
0:00
edit
Autoscroll
slow
fast
+/-
esc
set tempo
stop
Intro: 
F|-------------------------------------------|
C|-------------------------------------------|
G|----------------------------------3/5-3/5--|
C|---0----0----0----0----0----0--------------|


Verse:
F|-------------------------------------------|
C|-------------------------------------------|
G|---------------8-----3--3/5-3/5------------|
C|---000000000000-00000-00-------------------|

F|-------------------------------------------|
C|-------------------------------------------|
G|---------------8-----3--3/5-3/5------------|
C|---000000000000-00000-00-------------------|

F|-------------------------------------------|
C|-------------------------------------------|
G|---------------8-----3--3/5-3/5------------|
C|---000000000000-00000-00-------------------|

F|-------------------------------------------|
C|-------------------------------------------|
G|-----------------8-----3--3/5-3/5----------|
C|---000-000-000-00-00000-00-----------------|

Pre Chorus:
F|-------------------------------------------|
C|-------------------------------------------|
G|-------------------------------------------|
C|----00----00----00--------00----00----00---|

Chorus:
F|-------------------------------------------------------------|
C|-------------------------------------------------------------|
G|-------------------------------------------------------------|
C|-8-8-8-8-8-8-8-8-10-10-10-10-10-10-10-10-8-8-8-8-8-8-8-8-12~-|

Repeat Verse

Repeat PreChorus

Repeat Chorus x2

Bridge:
F|---------------------------------------------|
C|---------------------------------------------|
G|---------------------------------------------|x2
C|--00---00---00-------00---00-0000000000--00--|
                               ..........

Interlude:
F|-------------------------------|
C|-------------------------------|
G|-------------------------------|x3
C|--00-00-000-00-00-0000--00-----|

repeat chorus x2

Outro
F|---------------------------|
C|---------------------------|
G|---------------------------|
C|---00-------00------00-----|



Suggest correction
Creating personal tab
Creating personal tab
You can edit any tab online and save it as your Personal.

You can edit, replace or remove any tab part or add personal notes – all changes will be seen only by you.

Personal tabs can be accessed anytime from any device, even offline.
Learn more »
Give kudos to tab author, rate the tab!
1 2 3 4 5
comments
print report bad tab
2 comments total.
+1 reply
Bullet_owns 10 Jan 13, 2007 06:05 AM

great band, great tab 5 stars!

+1 reply
arm the masses 52 Jan 29, 2008 01:16 PM

this tab has helped a ton. i played this song with my band and sounded great. 5*!

guest
You may want to rate the tab now too:
select rating
Wanna post a correction for this tab? Suggest correction