Oops, an error
Loading. Please wait.

No Control tab

version 3
version 3

Whole song

Interactive

23,181 views 9 this week
12 commentsread comments
1 2 3 4 5
x 14
add to favorites
×
Save as Personal and add changes to this tab that will be seen only by you. Learn more ›
×
You can save this tab as Personal to edit and correct it or add notes. All changes will be seen only by you. Learn more »
launch autoscroll
font size
0
reset
how to read this tab
guitar tuner
backing track
0:00
0:00
edit
Autoscroll
slow
fast
+/-
esc
set tempo
stop
Bullet for my Valentine - Bullet for my Valentine EP - No Control (2004)
Drop C (from low - CGCFAD)
Slide = /
* = Harmonic
Palm Mute = Pm
Hammer on - h
pull of  - 

*note not a difficult song to play once u practice this song alot!*



guitar 1:
                                                                 
D||-------|-------------------------|---------------------------|
A||-------|-------------------------|---------------------------|
F||-------|-------------------------|---------------------------|
C||--7/---|--0----------------------|-----------------------10/-|
G||--7/---|--0----0--0--0--0--0--0--|--0--0--0--0--0--0--0--8/--|
C||--7/---|--0----0--0--0--0--0--0--|--0--0--0--0--0--0--0------|


                                                                           
------------------------|------------------------|------------------------|
------------------------|------------------------|------------------------|
------------------------|------------------------|------------------------|
---------------------5--|------------5--7--5--7--|------------------------|
------0--0--0--0--0--3--|------0--0--3--5--3--5--|------0--0--0--0--0--0--|
------0--0--0--0--0-----|------0--0--------------|------0--0--0--0--0--0--|


                                                                            
---------------------------|------------------------|----------------------|
---------------------------|------------------------|----------------------|
---------------------------|------------------------|----------------------|
-----------------------10/-|---------------------5--|----------5--7--5--7--|
--0--0--0--0--0--0--0--8/--|------0--0--0--0--0--3--|----------3--5--3--5--|
--0--0--0--0--0--0--0------|------0--0--0--0--0-----|----------------------|


                                                                              
------------------------|---------------------------|------------------------|
------------------------|---------------------------|------------------------|
------------------------|---------------------------|------------------------|
------------------------|-----------------------10/-|---------------------5--|
------0--0--0--0--0--0--|--0--0--0--0--0--0--0--8/--|------0--0--0--0--0--3--|
------0--0--0--0--0--0--|--0--0--0--0--0--0--0------|------0--0--0--0--0-----|


                                                                              
------------------------|------------------------|---------------------------|
------------------------|------------------------|---------------------------|
------------------------|------------------------|---------------------------|
------------5--7--5--7--|------------------------|-----------------------10/-|
------0--0--3--5--3--5--|------0--0--0--0--0--0--|--0--0--0--0--0--0--0--8/--|
------0--0--------------|------0--0--0--0--0--0--|--0--0--0--0--0--0--0------|


                                                                          
------------------------|------------------------|-----------------------|
------------------------|------------------------|-----------------------|
------------------------|------------------------|-----------------------|
---------------------5--|------------------------|-------0----------0----|
------0--0--0--0--0--3--|------0--0--3--5--3--5--|----0--0----0--0--0----|
------0--0--0--0--0-----|------0--0--------------|----0--0----0--0--0----|


                                                                             
--------------------------|------------------------|------------------------|
--------------------------|------------------------|------------------------|
--------------------------|------------------------|------------------------|
--------0----------0--10/-|---------------------5/-|------------5--7--5--7--|
--0--0--0----0--0--0--8/--|------0--0--0--0--0--3/-|------0--0--3--5--3--5--|
--0--0--0----0--0--0------|------0--0--0--0--0-----|------0--0--------------|


                                                                              
------------------------|---------------------------|------------------------|
------------------------|---------------------------|------------------------|
------------------------|---------------------------|------------------------|
---------0------------0-|--------------0--0--0--10--|---------------------5--|
-----0-0-0----0-0-0-0-0-|------0-0-0-0-0--0--0--8---|------0--0--0--0--0--3--|
-----0-0-0----0-0-0-0-0-|------0-0-0-0-0--0--0------|------0--0--0--0--0-----|


                                                            
------------------------|--------|-------------------------|
------------------------|--------|-------------------------|
------------------------|--------|-------------------------|
------------5--7--5--7--|--------|--0----5--7--5--7--------|
------0--0--3--5--3--5--|----0-0-|--0----3--5--3--5----0-0-|
------0--0--------------|----0-0-|--0------------------0-0-|


                                                                              
-------------------------|------------------------|--------------------------|
-------------------------|------------------------|--------------------------|
-------------------------|------------------------|--------------------------|
--0----5--7--5--7--------|--0----5--7--5--7-------|--------------------------|
--0----3--5--3--5----0-0-|--0----3--5--3--5----5--|--3--1--0--1--3--5----0-0-|
--0------------------0-0-|--0---------------------|----------------------0-0-|


                                                                              
-------------------------|-------------------------|-------------------------|
-------------------------|-------------------------|-------------------------|
-------------------------|-------------------------|-------------------------|
--0----5--7--5--7--------|--0----5--7--5--7--------|--0----5--7--5--7--3--3--|
--0----3--5--3--5----0-0-|--0----3--5--3--5----0-0-|--0----3--5--3--5--1--1--|
--0------------------0-0-|--0------------------0-0-|--0----------------------|


                                                                             
------------------------|--------------------------|------------------------|
------------------------|--------------------------|------------------------|
-----------------3------|--3--3--3--3--3--3--3--3--|--3--3--3--3--3--5------|
--3--3--3--3--3--3------|--3--3--3--3--3--3--3--3--|--3--3--3--3--3--5------|
--1--1--1--1--1--1------|--1--1--1--1--1--1--1--1--|--1--1--1--1--1--3------|
------------------------|--------------------------|------------------------|


                                                                               
--------------------------|------------------------|--------------------------|
--------------------------|------------------------|--------------------------|
--5--5--5--5--5--5--5--5--|--5--5--5--7--5--3------|--3--3--3--3--3--3--3--3--|
--5--5--5--5--5--5--5--5--|--5--5--5--7--5--3------|--3--3--3--3--3--3--3--3--|
--3--3--3--3--3--3--3--3--|--3--3--3--5--3--1------|--1--1--1--1--1--1--1--1--|
--------------------------|------------------------|--------------------------|


                                                                       
------------------------|-------------------|-------------------------|
------------------------|-------------------|-------------------------|
--3--3--3--3--3--7------|-------------------|-------------------------|
--3--3--3--3--3--7------|--------------7/---|--0----------------------|
--1--1--1--1--1--5------|--------------7/---|--0----0--0--0--0--0--0--|
------------------------|--------------7/---|--0----0--0--0--0--0--0--|


                                                                              
---------------------------|------------------------|------------------------|
---------------------------|------------------------|------------------------|
---------------------------|------------------------|------------------------|
-----------------------10/-|---------------------5--|------------5--7--5--7--|
--0--0--0--0--0--0--0--8/--|------0--0--0--0--0--3--|------0--0--3--5--3--5--|
--0--0--0--0--0--0--0------|------0--0--0--0--0-----|------0--0--------------|


                                                                               
-------------------------|---------------------------|------------------------|
-------------------------|---------------------------|------------------------|
-------------------------|---------------------------|------------------------|
-------------------------|-----------------------10/-|---------------------5--|
----0--0--0--0--0--0--0--|--0--0--0--0--0--0--0--8/--|------0--0--0--0--0--3--|
----0--0--0--0--0--0--0--|--0--0--0--0--0--0--0------|------0--0--0--0--0-----|


                                                                               
------------------------|-------------------------|---------------------------|
------------------------|-------------------------|---------------------------|
------------------------|-------------------------|---------------------------|
------------5--7--5--7--|-------------------------|-----------------------10/-|
------0--0--3--5--3--5--|----0--0--0--0--0--0--0--|--0--0--0--0--0--0--0--8/--|
------0--0--------------|----0--0--0--0--0--0--0--|--0--0--0--0--0--0--0------|


                                                                          
------------------------|------------------------|-----------------------|
------------------------|------------------------|-----------------------|
------------------------|------------------------|-----------------------|
---------------------5--|------------------------|-------0----------0----|
------0--0--0--0--0--3--|------0--0--3--5--3--5--|----0--0----0--0--0----|
------0--0--0--0--0-----|------0--0--------------|----0--0----0--0--0----|


                                                                             
--------------------------|------------------------|------------------------|
--------------------------|------------------------|------------------------|
--------------------------|------------------------|------------------------|
--------0----------0--10/-|---------------------5/-|------------5--7--5--7--|
--0--0--0----0--0--0--8/--|------0--0--0--0--0--3/-|------0--0--3--5--3--5--|
--0--0--0----0--0--0------|------0--0--0--0--0-----|------0--0--------------|


                                                                              
------------------------|---------------------------|------------------------|
------------------------|---------------------------|------------------------|
------------------------|---------------------------|------------------------|
---------0------------0-|--------------0--0--0--10--|---------------------5--|
-----0-0-0----0-0-0-0-0-|------0-0-0-0-0--0--0--8---|------0--0--0--0--0--3--|
-----0-0-0----0-0-0-0-0-|------0-0-0-0-0--0--0------|------0--0--0--0--0-----|


                                                            
------------------------|--------|-------------------------|
------------------------|--------|-------------------------|
------------------------|--------|-------------------------|
------------5--7--5--7--|--------|--0----5--7--5--7--------|
------0--0--3--5--3--5--|----0-0-|--0----3--5--3--5----0-0-|
------0--0--------------|----0-0-|--0------------------0-0-|


                                                                              
-------------------------|------------------------|--------------------------|
-------------------------|------------------------|--------------------------|
-------------------------|------------------------|--------------------------|
--0----5--7--5--7--------|--0----5--7--5--7-------|--------------------------|
--0----3--5--3--5----0-0-|--0----3--5--3--5----5--|--3--1--0--1--3--5----0-0-|
--0------------------0-0-|--0---------------------|----------------------0-0-|


                                                                              
-------------------------|-------------------------|-------------------------|
-------------------------|-------------------------|-------------------------|
-------------------------|-------------------------|-------------------------|
--0----5--7--5--7--------|--0----5--7--5--7--------|--0----5--7--5--7--3--3--|
--0----3--5--3--5----0-0-|--0----3--5--3--5----0-0-|--0----3--5--3--5--1--1--|
--0------------------0-0-|--0------------------0-0-|--0----------------------|


                                                                             
------------------------|--------------------------|------------------------|
------------------------|--------------------------|------------------------|
-----------------3------|--3--3--3--3--3--3--3--3--|--3--3--3--3--3--5------|
--3--3--3--3--3--3------|--3--3--3--3--3--3--3--3--|--3--3--3--3--3--5------|
--1--1--1--1--1--1------|--1--1--1--1--1--1--1--1--|--1--1--1--1--1--3------|
------------------------|--------------------------|------------------------|


                                                                               
--------------------------|------------------------|--------------------------|
--------------------------|------------------------|--------------------------|
--5--5--5--5--5--5--5--5--|--5--5--5--7--5--3------|--3--3--3--3--3--3--3--3--|
--5--5--5--5--5--5--5--5--|--5--5--5--7--5--3------|--3--3--3--3--3--3--3--3--|
--3--3--3--3--3--3--3--3--|--3--3--3--5--3--1------|--1--1--1--1--1--1--1--1--|
--------------------------|------------------------|--------------------------|


                                                                   
------------------------|------------------|----------------------|
------------------------|------------------|----------------------|
--3--3--3--3--3--7------|------------------|--------------10--10--|
--3--3--3--3--3--7------|------------------|----------------------|
--1--1--1--1--1--5------|------------------|--------------8---8---|
------------------------|------------------|----------------------|


                                                                      
----------------------------------|----------------------------------|
----------------------------------|----------------------------------|
--10--10--10--10--10--10--10--10--|--10--10--10--10--10--10--12--12--|
----------------------------------|----------------------------------|
--8---8---8---8---8---8---8---8---|--8---8---8---8---8---8---10--10--|
----------------------------------|----------------------------------|


                                                                      
----------------------------------|----------------------------------|
----------------------------------|----------------------------------|
--12--12--12--12--12--12--12--12--|--12--12--12--12--12--12--10--10--|
----------------------------------|----------------------------------|
--10--10--10--10--10--10--10--10--|--10--10--10--10--10--10--8---8---|
----------------------------------|----------------------------------|


                                                                 
----------------------------------|-----------------------------|
----------------------------------|-----------------------------|
--10--10--10--10--10--10--10--10--|--10--10--10--10--10---------|
----------------------------------|----------------------0------|
--8---8---8---8---8---8---8---8---|--8---8---8---8---8---0------|
----------------------------------|----------------------0------|


                                                               
-------------------|----------------------|-------------------|
-------------------|----------------------|-------------------|
-------------------|----------------------|-------------------|
--------------7/---|--0--------------0----|--0----------------|
--------------7/---|--0--------------0----|--0----------------|
--------------7/---|--0--------------0----|--0----------------|


                                                                  
-------------------|------------------------|--------------------|
-------------------|------------------------|--------------------|
-------------------|------------------------|--------------------|
--------------0----|--0------------------0--|--0------------0----|
--------------0----|--0----7--8--7--8----0--|--0------------0----|
--------------0----|--0------------------0--|--0------------0----|


                                                                             
-------------------------|-------------------------|------------------------|
-------------------------|-------------------------|------------------------|
-------------------------|-------------------------|------------------------|
--0----------------------|--------------------0----|--0------------------0--|
--0----0--0--0--0--0--0--|--0--0--0--0--0--0--0----|--0----7--8--7--8----0--|
--0----0--0--0--0--0--0--|--0--0--0--0--0--0--0----|--0------------------0--|


                                                               
----------------------|-------------------|-------------------|
----------------------|-------------------|-------------------|
----------------------|-------------------|-------------------|
--0--------------0----|--0----------------|--------------0----|
--0--------------0----|--0----------------|--------------0----|
--0--------------0----|--0----------------|--------------0----|


                                                                        
------------------------|--------------------|-------------------------|
------------------------|--------------------|-------------------------|
------------------------|--------------------|-------------------------|
--0------------------0--|--0------------0----|--0----------------------|
--0----7--8--7--8----0--|--0------------0----|--0----0--0--0--0--0--0--|
--0------------------0--|--0------------0----|--0----0--0--0--0--0--0--|


                                                                       
-------------------------|-------------------|------------------------|
-------------------------|-------------------|------------------------|
-------------------------|-------------------|------------------------|
--------------------0----|--0----------------|------------------------|
--0--0--0--0--0--0--0----|--0----------------|--0--0--0----0--0--0----|
--0--0--0--0--0--0--0----|--0----------------|--0--0--0----0--0--0----|


                                                                         
-----------------------|------------------------|-----------------------|
-----------------------|------------------------|-----------------------|
-----------------------|------------------------|-----------------------|
-----------------------|------------------------|-------------10--------|
----0----0--0--0--0----|--0--0--0----0--0--0----|----7--8--7------------|
----0----0--0--0--0----|--0--0--0----0--0--0----|-----------------------|


                                                                          
------------------------|-----------------------|------------------------|
------------------------|-----------------------|------------------------|
------------------------|-----------------------|------------------------|
------------------------|-----------------------|------------------------|
--0--0--0----0--0--0----|----0----0--0--0--0----|--0--0--0----0--0--0----|
--0--0--0----0--0--0----|----0----0--0--0--0----|--0--0--0----0--0--0----|


                                                    
-----------------------|---------------------------|
-----------------------|---------------------------|
-----------------------|-----10-----9-----5-----7--|
-------------10--------|---------------------------|
----7--8--7------------|---------------------------|
-----------------------|--0------0-----0-----0-----|


                                                              
---------------------------------|---------------------------|
---------------------------------|---------------------------|
-----10-----10--10-12-10---9-10--|-----10-----9-----5-----7--|
---------------------------------|---------------------------|
---------------------------------|---------------------------|
--0------0-----------------------|--0------0-----0-----0-----|


                                                    
-----------------------|---------------------------|
-----------------------|---------------------------|
-----5-----------------|-----10-----9-----5-----7--|
-----------------------|---------------------------|
------------0---0---0--|---------------------------|
--0---------0---0---0--|--0------0-----0-----0-----|


                                                              
---------------------------------|---------------------------|
---------------------------------|---------------------------|
-----10-----10--10-12-10---9-10--|-----10-----9-----5-----7--|
---------------------------------|---------------------------|
---------------------------------|---------------------------|
--0------0-----------------------|--0------0-----0-----0-----|


                                                                            
-----------------------|-------------------|----|--------------------------|
-----------------------|-------------------|----|--------------------------|
-----5-----------------|-------------------|----|--------------------------|
-----------------------|--0----------------|----|-----7-----5-----2-----3--|
------------0---0---0--|--0----------------|----|--------------------------|
--0---------0---0---0--|--0----------------|----|--0-----0-----0-----0-----|


                                                            
-------------------------|------|--------------------------|
-------------------------|------|--------------------------|
----------------------3--|------|--3--3--3--3--3--3--3--3--|
----3--3--3--3--3--3--3--|------|--3--3--3--3--3--3--3--3--|
----3--3--3--3--3--3--1--|------|--1--1--1--1--1--1--1--1--|
----3--3--3--3--3--3-----|------|--------------------------|


                                                                             
------------------------|--------------------------|------------------------|
------------------------|--------------------------|------------------------|
--3--3--3--3--3--5------|--5--5--5--5--5--5--5--5--|--5--5--5--7--5--3------|
--3--3--3--3--3--5------|--5--5--5--5--5--5--5--5--|--5--5--5--7--5--3------|
--1--1--1--1--1--3------|--3--3--5--3--3--3--5--3--|--3--3--3--5--3--1------|
------------------------|--------------------------|------------------------|


                                                                       
--------------------------|------------------------|------------------|
--------------------------|------------------------|------------------|
--3--3--3--3--3--3--3--3--|--3--3--3--3--3--7------|------------------|
--3--3--3--3--3--3--3--3--|--3--3--3--3--3--7------|------------------|
--1--1--1--1--1--1--1--1--|--1--1--1--1--1--5------|------------------|
--------------------------|------------------------|------------------|


                                                          
----------------------|----------------------------------|
----------------------|----------------------------------|
--------------10--10--|--10--10--10--10--10--10--10--10--|
----------------------|----------------------------------|
--------------8---8---|--8---8---8---8---8---8---8---8---|
----------------------|----------------------------------|


                                                                      
----------------------------------|----------------------------------|
----------------------------------|----------------------------------|
--10--10--10--10--10--10--12--12--|--12--12--12--12--12--12--12--12--|
----------------------------------|----------------------------------|
--8---8---8---8---8---8---10--10--|--10--10--10--10--10--10--10--10--|
----------------------------------|----------------------------------|


                                                                      
----------------------------------|----------------------------------|
----------------------------------|----------------------------------|
--12--12--12--12--12--12--10--10--|--10--10--10--10--10--10--10--10--|
----------------------------------|----------------------------------|
--10--10--10--10--10--10--8---8---|--8---8---8---8---8---8---8---8---|
----------------------------------|----------------------------------|


                                                                          
-----------------------------|------------------|------------------------|
-----------------------------|------------------|------------------------|
--10--10--10--10--10---------|------------------|------------------------|
----------------------0------|------------------|------5--7--5--7--------|
--8---8---8---8---8---0------|------------------|------3--5--3--5----0-0-|
----------------------0------|------------------|--------------------0-0-|


                                                                              
-------------------------|------------------------|--------------------------|
-------------------------|------------------------|--------------------------|
-------------------------|------------------------|--------------------------|
--0----5--7--5--7--------|--0----5--7--5--7-------|--------------------------|
--0----3--5--3--5----0-0-|--0----3--5--3--5----5--|--3--1--0--1--3--5----0-0-|
--0------------------0-0-|--0---------------------|----------------------0-0-|


                                                                             
-------------------------|-------------------------|------------------------|
-------------------------|-------------------------|------------------------|
-------------------------|-------------------------|------------------------|
--0----5--7--5--7--------|--0----5--7--5--7--------|--0----5--7--5--7-------|
--0----3--5--3--5----0-0-|--0----3--5--3--5----0-0-|--0----3--5--3--5----5--|
--0------------------0-0-|--0------------------0-0-|--0---------------------|


                                                                           
----------------------|------------------------|--------------------------|
----------------------|------------------------|--------------------------|
----------------------|------------------------|--------------------------|
----------------------|----------3--5--3--7----|----------9--10--9--12----|
--3--1--0--1--3--5----|--0--0------------------|--0--0--------------------|
----------------------|--0--0------------------|--0--0--------------------|


                                                                      
----------------------------|----------------------|-----------------|
----------------------------|----------------------|-----------------|
----------------------------|----------------------|-----------------|
----------12--14--12--15----|----------------------|-----------------|
--0--0----------------------|--0----0----0----0----|--0----0----0----|
--0--0----------------------|--0----0----0----0----|--0----0----0----|


                                                              
---------------------------|---------------------------------|
---------------------------|---------------------------------|
-----10-----9-----5-----7--|-----10-----10--10-12-10---9-10--|
---------------------------|---------------------------------|
---------------------------|---------------------------------|
--0------0-----0-----0-----|--0------0-----------------------|


                                                                                
---------------------------|-----------------------|---------------------------|
---------------------------|-----------------------|---------------------------|
-----10-----9-----5-----7--|-----5-----------------|-----10-----9-----5-----7--|
---------------------------|-----------------------|---------------------------|
---------------------------|------------0---0---0--|---------------------------|
--0------0-----0-----0-----|--0---------0---0---0--|--0------0-----0-----0-----|


                                                              
---------------------------------|---------------------------|
---------------------------------|---------------------------|
-----10-----10--10-12-10---9-10--|-----10-----9-----5-----7--|
---------------------------------|---------------------------|
---------------------------------|---------------------------|
--0------0-----------------------|--0------0-----0-----0-----|


                                                    
-----------------------|---------------------------|
-----------------------|---------------------------|
-----5-----------------|-----10-----9-----5-----7--|
-----------------------|---------------------------|
------------3---3---3--|---------------------------|
--0---------3---3---3--|--0------0-----0-----0-----|


                                                              
---------------------------------|---------------------------|
---------------------------------|---------------------------|
-----10-----10--10-12-10---9-10--|-----10-----9-----5-----7--|
---------------------------------|---------------------------|
---------------------------------|---------------------------|
--0------0-----------------------|--0------0-----0-----0-----|


                                                    
-----------------------|---------------------------|
-----------------------|---------------------------|
-----5-----------------|-----10-----9-----5-----7--|
-----------------------|---------------------------|
------------0---0---0--|---------------------------|
--0---------0---0---0--|--0------0-----0-----0-----|


                                                              
---------------------------------|---------------------------|
---------------------------------|---------------------------|
-----10-----10--10-12-10---9-10--|-----10-----9-----5-----7--|
---------------------------------|---------------------------|
---------------------------------|---------------------------|
--0------0-----------------------|--0------0-----0-----0-----|


                                                     
-----------------------|----------------------|----||
-----------------------|----------------------|----||
-----5-----------------|----------------------|----||
-----------------------|----------------------|----||
------------3---3---3--|---3---3---3---0------|----||
--0---------3---3---3--|---3---3---3---0------|----||


Guitar 2:

D||-------|-------------------|------|------|------|--------------------|
A||-------|-------------------|------|------|------|--------------------|
F||-------|-------------------|------|------|------|--------------------|
C||--7/---|--0----------------|------|------|------|--------------------|
G||--7/---|--0----------------|------|------|------|------0--------0----|
C||--7/---|--0----------------|------|------|------|------0--------0----|


                                                                 
--------------------|--------------------|----------------------|
--------------------|--------------------|----------------------|
--------------------|--------------------|----------------------|
--------------------|--------------------|----------5--7--5--7--|
------0--------0----|------0--------0----|----------3--5--3--5--|
------0--------0----|------0--------0----|----------------------|


                                                                              
------------------------|---------------------------|------------------------|
------------------------|---------------------------|------------------------|
------------------------|---------------------------|------------------------|
------------------------|-----------------------10/-|---------------------5--|
------0--0--0--0--0--0--|--0--0--0--0--0--0--0--8/--|------0--0--0--0--0--3--|
------0--0--0--0--0--0--|--0--0--0--0--0--0--0------|------0--0--0--0--0-----|


                                                                              
------------------------|------------------------|---------------------------|
------------------------|------------------------|---------------------------|
------------------------|------------------------|---------------------------|
------------5--7--5--7--|------------------------|-----------------------10/-|
------0--0--3--5--3--5--|------0--0--0--0--0--0--|--0--0--0--0--0--0--0--8/--|
------0--0--------------|------0--0--0--0--0--0--|--0--0--0--0--0--0--0------|


                                                                          
------------------------|------------------------|-----------------------|
------------------------|------------------------|-----------------------|
------------------------|------------------------|-----------------------|
---------------------5--|------------2--3--2--3--|-------0----------0----|
------0--0--0--0--0--3--|------0--0--------------|----0--0----0--0--0----|
------0--0--0--0--0-----|------0--0--------------|----0--0----0--0--0----|


                                                                             
--------------------------|------------------------|------------------------|
--------------------------|------------------------|------------------------|
--------------------------|------------------------|------------------------|
--------0----------0--10/-|---------------------5/-|------------5--7--5--7--|
--0--0--0----0--0--0--8/--|------0--0--0--0--0--3/-|------0--0--3--5--3--5--|
--0--0--0----0--0--0------|------0--0--0--0--0-----|------0--0--------------|


                                                                              
------------------------|---------------------------|------------------------|
------------------------|---------------------------|------------------------|
------------------------|---------------------------|------------------------|
---------0------------0-|--------------0--0--0--10--|---------------------5--|
-----0-0-0----0-0-0-0-0-|------0-0-0-0-0--0--0--8---|------0--0--0--0--0--3--|
-----0-0-0----0-0-0-0-0-|------0-0-0-0-0--0--0------|------0--0--0--0--0-----|


                                                                              
------------------------|--------|---------------------|---------------------|
------------------------|--------|---------------------|---------------------|
------------------------|--------|---------------------|---------------------|
------------5--7--5--7--|--------|--0------------------|--0------------------|
------0--0--3--5--3--5--|----0-0-|--0--------------0-0-|--0--------------0-0-|
------0--0--------------|----0-0-|--0--------------0-0-|--0--------------0-0-|


                                                                      
--------------------|--------------------------|---------------------|
--------------------|--------------------------|---------------------|
--------------------|--------------------------|---------------------|
--0-----------------|--------------------------|--0------------------|
--0--------------5--|--3--1--0--1--3--5----0-0-|--0--------------0-0-|
--0-----------------|----------------------0-0-|--0--------------0-0-|


                                                                     
---------------------|---------------------|------------------------|
---------------------|---------------------|------------------------|
---------------------|---------------------|-----------------3------|
--0------------------|--0------------3--3--|--3--3--3--3--3--3------|
--0--------------0-0-|--0------------1--1--|--1--1--1--1--1--1------|
--0--------------0-0-|--0------------------|------------------------|


                                                                               
--------------------------|------------------------|--------------------------|
--------------------------|------------------------|--------------------------|
--3--3--3--3--3--3--3--3--|--3--3--3--3--3--5------|--5--5--5--5--5--5--5--5--|
--3--3--3--3--3--3--3--3--|--3--3--3--3--3--5------|--5--5--5--5--5--5--5--5--|
--1--1--1--1--1--1--1--1--|--1--1--1--1--1--3------|--3--3--3--3--3--3--3--3--|
--------------------------|------------------------|--------------------------|


                                                                             
------------------------|--------------------------|------------------------|
------------------------|--------------------------|------------------------|
--5--5--5--7--5--3------|--3--3--3--3--3--3--3--3--|--3--3--3--3--3--7------|
--5--5--5--7--5--3------|--3--3--3--3--3--3--3--3--|--3--3--3--3--3--7------|
--3--3--3--5--3--1------|--1--1--1--1--1--1--1--1--|--1--1--1--1--1--5------|
------------------------|--------------------------|------------------------|


                                                                             
-------------------|-------------------|------|------|----------------------|
-------------------|-------------------|------|------|----------------------|
-------------------|-------------------|------|------|----------------------|
--------------7/---|--0----------------|------|------|----------5--7--5--7--|
--------------7/---|--0----------------|------|------|----------3--5--3--5--|
--------------7/---|--0----------------|------|------|----------------------|


                                                                              
------------------------|---------------------------|------------------------|
------------------------|---------------------------|------------------------|
------------------------|---------------------------|------------------------|
------------------------|-----------------------10/-|---------------------5--|
------0--0--0--0--0--0--|--0--0--0--0--0--0--0--8/--|------0--0--0--0--0--3--|
------0--0--0--0--0--0--|--0--0--0--0--0--0--0------|------0--0--0--0--0-----|


                                                                              
------------------------|------------------------|---------------------------|
------------------------|------------------------|---------------------------|
------------------------|------------------------|---------------------------|
------------5--7--5--7--|------------------------|-----------------------10/-|
------0--0--3--5--3--5--|------0--0--0--0--0--0--|--0--0--0--0--0--0--0--8/--|
------0--0--------------|------0--0--0--0--0--0--|--0--0--0--0--0--0--0------|


                                                                          
------------------------|------------------------|-----------------------|
------------------------|------------------------|-----------------------|
------------------------|------------------------|-----------------------|
---------------------5--|------------2--3--2--3--|-------0----------0----|
------0--0--0--0--0--3--|------0--0--------------|----0--0----0--0--0----|
------0--0--0--0--0-----|------0--0--------------|----0--0----0--0--0----|


                                                                             
--------------------------|------------------------|------------------------|
--------------------------|------------------------|------------------------|
--------------------------|------------------------|------------------------|
--------0----------0--10/-|---------------------5/-|------------5--7--5--7--|
--0--0--0----0--0--0--8/--|------0--0--0--0--0--3/-|------0--0--3--5--3--5--|
--0--0--0----0--0--0------|------0--0--0--0--0-----|------0--0--------------|


                                                                              
------------------------|---------------------------|------------------------|
------------------------|---------------------------|------------------------|
------------------------|---------------------------|------------------------|
---------0------------0-|--------------0--0--0--10--|---------------------5--|
-----0-0-0----0-0-0-0-0-|------0-0-0-0-0--0--0--8---|------0--0--0--0--0--3--|
-----0-0-0----0-0-0-0-0-|------0-0-0-0-0--0--0------|------0--0--0--0--0-----|


                                                                              
------------------------|--------|---------------------|---------------------|
------------------------|--------|---------------------|---------------------|
------------------------|--------|---------------------|---------------------|
------------5--7--5--7--|--------|--0------------------|--0------------------|
------0--0--3--5--3--5--|----0-0-|--0--------------0-0-|--0--------------0-0-|
------0--0--------------|----0-0-|--0--------------0-0-|--0--------------0-0-|


                                                                      
--------------------|--------------------------|---------------------|
--------------------|--------------------------|---------------------|
--------------------|--------------------------|---------------------|
--0-----------------|--------------------------|--0------------------|
--0--------------5--|--3--1--0--1--3--5----0-0-|--0--------------0-0-|
--0-----------------|----------------------0-0-|--0--------------0-0-|


                                                                     
---------------------|---------------------|------------------------|
---------------------|---------------------|------------------------|
---------------------|---------------------|-----------------3------|
--0------------------|--0------------3--3--|--3--3--3--3--3--3------|
--0--------------0-0-|--0------------1--1--|--1--1--1--1--1--1------|
--0--------------0-0-|--0------------------|------------------------|


                                                                               
--------------------------|------------------------|--------------------------|
--------------------------|------------------------|--------------------------|
--3--3--3--3--3--3--3--3--|--3--3--3--3--3--5------|--5--5--5--5--5--5--5--5--|
--3--3--3--3--3--3--3--3--|--3--3--3--3--3--5------|--5--5--5--5--5--5--5--5--|
--1--1--1--1--1--1--1--1--|--1--1--1--1--1--3------|--3--3--3--3--3--3--3--3--|
--------------------------|------------------------|--------------------------|


                                                                             
------------------------|--------------------------|------------------------|
------------------------|--------------------------|------------------------|
--5--5--5--7--5--3------|--3--3--3--3--3--3--3--3--|--3--3--3--3--3--7------|
--5--5--5--7--5--3------|--3--3--3--3--3--3--3--3--|--3--3--3--3--3--7------|
--3--3--3--5--3--1------|--1--1--1--1--1--1--1--1--|--1--1--1--1--1--5------|
------------------------|--------------------------|------------------------|


                                                                             
------------------|----------------------|----------------------------------|
------------------|----------------------|----------------------------------|
------------------|--------------10--10--|--10--10--10--10--10--10--10--10--|
------------------|----------------------|----------------------------------|
------------------|--------------8---8---|--8---8---8---8---8---8---8---8---|
------------------|----------------------|----------------------------------|


                                                            
--------------------------------|--------------------------|
--------------------------------|--------------------------|
--10--10--10--10--10--10--9--9--|--9--9--9--9--9--9--9--9--|
--------------------------------|--------------------------|
--8---8---8---8---8---8---7--7--|--7--7--7--7--7--7--7--7--|
--------------------------------|--------------------------|


                                                                
----------------------------|----------------------------------|
----------------------------|----------------------------------|
--9--9--9--9--9--9--10--10--|--10--10--10--10--10--10--10--10--|
----------------------------|----------------------------------|
--7--7--7--7--7--7--8---8---|--8---8---8---8---8---8---8---8---|
----------------------------|----------------------------------|


                                                                         
-----------------------------|-------------------|----------------------|
-----------------------------|-------------------|----------------------|
--10--10--10--10--10---------|-------------------|----------------------|
----------------------0------|--------------7/---|--0--------------0----|
--8---8---8---8---8---0------|--------------7/---|--0--------------0----|
----------------------0------|--------------7/---|--0--------------0----|


                                                                 
-------------------|-------------------|------------------------|
-------------------|-------------------|------------------------|
-------------------|-------------------|------------------------|
--0----------------|--------------0----|--0------------------0--|
--0----------------|--------------0----|--0----3--5--3--1----0--|
--0----------------|--------------0----|--0------------------0--|


                                                                         
--------------------|-------------------------|-------------------------|
--------------------|-------------------------|-------------------------|
--------------------|-------------------------|-------------------------|
--0------------0----|--0----------------------|--------------------0----|
--0------------0----|--0----0--0--0--0--0--0--|--0--0--0--0--0--0--0----|
--0------------0----|--0----0--0--0--0--0--0--|--0--0--0--0--0--0--0----|


                                                                    
------------------------|----------------------|-------------------|
------------------------|----------------------|-------------------|
------------------------|----------------------|-------------------|
--0------------------0--|--0--------------0----|--0----------------|
--0----3--5--3--1----0--|--0--------------0----|--0----------------|
--0------------------0--|--0--------------0----|--0----------------|


                                                                  
-------------------|------------------------|--------------------|
-------------------|------------------------|--------------------|
-------------------|------------------------|--------------------|
--------------0----|--0------------------0--|--0------------0----|
--------------0----|--0----3--5--3--1----0--|--0------------0----|
--------------0----|--0------------------0--|--0------------0----|


                                                                        
-------------------------|-------------------------|-------------------|
-------------------------|-------------------------|-------------------|
-------------------------|-------------------------|-------------------|
--0----------------------|--------------------0----|--0----------------|
--0----0--0--0--0--0--0--|--0--0--0--0--0--0--0----|--0----------------|
--0----0--0--0--0--0--0--|--0--0--0--0--0--0--0----|--0----------------|


                                                        
--------------------------|----------------------------|
--------------------------|----------------------------|
--------------------------|----------------------------|
--------------------------|----------------------------|
-----8-----7-----3-----5--|-----8-----8--8-10-8---7-8--|
--0-----0-----0-----0-----|--0-----0-------------------|


                                                                              
--------------------------|-----------------------|--------------------------|
--------------------------|-----------------------|--------------------------|
--------------------------|-----------------------|--------------------------|
--------------------------|-----------------------|--------------------------|
-----8-----7-----3-----5--|-----3--------3--------|-----8-----7-----3-----5--|
--0-----0-----0-----0-----|--0-----0--0-----------|--0-----0-----0-----0-----|


                                                                                
----------------------------|--------------------------|-----------------------|
----------------------------|--------------------------|-----------------------|
----------------------------|--------------------------|-----------------------|
----------------------------|--------------------------|-----------------------|
-----8-----8--8-10-8---7-8--|-----8-----7-----3-----5--|-----3--------0--------|
--0-----0-------------------|--0-----0-----0-----0-----|--0-----0--0-----------|


                                                        
--------------------------|----------------------------|
--------------------------|----------------------------|
--------------------------|----------------------------|
--------------------------|----------------------------|
-----8-----7-----3-----5--|-----8-----8--8-10-8---7-8--|
--0-----0-----0-----0-----|--0-----0-------------------|


                                                                              
--------------------------|-----------------------|--------------------------|
--------------------------|-----------------------|--------------------------|
--------------------------|-----------------------|--------------------------|
--------------------------|-----------------------|--------------------------|
-----8-----7-----3-----5--|-----3------0---0---0--|-----8-----7-----3-----5--|
--0-----0-----0-----0-----|--0---------0---0---0--|--0-----0-----0-----0-----|


                                                                                
----------------------------|--------------------------|-----------------------|
----------------------------|--------------------------|-----------------------|
----------------------------|--------------------------|-----------------------|
----------------------------|--------------------------|-----------------------|
-----8-----8--8-10-8---7-8--|-----8-----7-----3-----5--|-----3------0---0---0--|
--0-----0-------------------|--0-----0-----0-----0-----|--0---------0---0---0--|


                                                       
--------------------------|---------------------------|
--------------------------|---------------------------|
--------------------------|---------------------------|
--------------------------|---------------------------|
-----8-----7-----3-----5--|-----8-----8--10--8--7--8--|
--0-----0-----0-----0-----|--0-----0------------------|


                                                            
--------------------------|-------------------------|------|
--------------------------|-------------------------|------|
--------------------------|----------------------3--|------|
--------------------------|----3--3--3--3--3--3--3--|------|
-----8-----7-----3-----5--|----3--3--3--3--3--3--1--|------|
--0-----0-----0-----0-----|----3--3--3--3--3--3-----|------|


                                                                               
--------------------------|------------------------|--------------------------|
--------------------------|------------------------|--------------------------|
--3--3--3--3--3--3--3--3--|--3--3--3--3--3--5------|--5--5--5--5--5--5--5--5--|
--3--3--3--3--3--3--3--3--|--3--3--3--3--3--5------|--5--5--5--5--5--5--5--5--|
--1--1--1--1--1--1--1--1--|--1--1--1--1--1--3------|--3--3--3--3--3--3--3--3--|
--------------------------|------------------------|--------------------------|


                                                                             
------------------------|--------------------------|------------------------|
------------------------|--------------------------|------------------------|
--5--5--5--7--5--3------|--3--3--3--3--3--3--3--3--|--3--3--3--3--3--7------|
--5--5--5--7--5--3------|--3--3--3--3--3--3--3--3--|--3--3--3--3--3--7------|
--3--3--3--5--3--1------|--1--1--1--1--1--1--1--1--|--1--1--1--1--1--5------|
------------------------|--------------------------|------------------------|


                                                                             
------------------|----------------------|----------------------------------|
------------------|----------------------|----------------------------------|
------------------|--------------10--10--|--10--10--10--10--10--10--10--10--|
------------------|----------------------|----------------------------------|
------------------|--------------8---8---|--8---8---8---8---8---8---8---8---|
------------------|----------------------|----------------------------------|


                                                            
--------------------------------|--------------------------|
--------------------------------|--------------------------|
--10--10--10--10--10--10--9--9--|--9--9--9--9--9--9--9--9--|
--------------------------------|--------------------------|
--8---8---8---8---8---8---7--7--|--7--7--7--7--7--7--7--7--|
--------------------------------|--------------------------|


                                                                
----------------------------|----------------------------------|
----------------------------|----------------------------------|
--9--9--9--9--9--9--10--10--|--10--10--10--10--10--10--10--10--|
----------------------------|----------------------------------|
--7--7--7--7--7--7--8---8---|--8---8---8---8---8---8---8---8---|
----------------------------|----------------------------------|


                                                                          
-----------------------------|------------------|------------------------|
-----------------------------|------------------|------------------------|
--10--10--10--10--10---------|------------------|------------------------|
----------------------0------|------------------|------5--7--5--7--------|
--8---8---8---8---8---0------|------------------|------3--5--3--5----0-0-|
----------------------0------|------------------|--------------------0-0-|


                                                                      
---------------------|--------------------|--------------------------|
---------------------|--------------------|--------------------------|
---------------------|--------------------|--------------------------|
--0------------------|--0-----------------|--------------------------|
--0--------------0-0-|--0--------------5--|--3--1--0--1--3--5----0-0-|
--0--------------0-0-|--0-----------------|----------------------0-0-|


                                                                 
---------------------|---------------------|--------------------|
---------------------|---------------------|--------------------|
---------------------|---------------------|--------------------|
--0------------------|--0------------------|--0-----------------|
--0--------------0-0-|--0--------------0-0-|--0--------------5--|
--0--------------0-0-|--0--------------0-0-|--0-----------------|


                                                                             
----------------------|------------------------|----------------------------|
----------------------|------------------------|----------------------------|
----------------------|------------------------|----------------------------|
----------------------|------------------------|----------------------------|
--3--1--0--1--3--5----|--0--0----7--8--7--8----|--0--0----10--12--10--12----|
----------------------|--0--0------------------|--0--0----------------------|


                                                                      
----------------------------|----------------------|-----------------|
----------------------------|----------------------|-----------------|
----------------------------|----------------------|-----------------|
----------------------------|----------------------|-----------------|
--0--0----15--17--15--17----|--0----0----0----0----|--0----0----0----|
--0--0----------------------|--0----0----0----0----|--0----0----0----|


                                                        
--------------------------|----------------------------|
--------------------------|----------------------------|
--------------------------|----------------------------|
--------------------------|----------------------------|
-----8-----7-----3-----5--|-----8-----8--8-10-8---7-8--|
--0-----0-----0-----0-----|--0-----0-------------------|


                                                                              
--------------------------|-----------------------|--------------------------|
--------------------------|-----------------------|--------------------------|
--------------------------|-----------------------|--------------------------|
--------------------------|-----------------------|--------------------------|
-----8-----7-----3-----5--|-----3------0---0---0--|-----8-----7-----3-----5--|
--0-----0-----0-----0-----|--0---------0---0---0--|--0-----0-----0-----0-----|


                                                                                
----------------------------|--------------------------|-----------------------|
----------------------------|--------------------------|-----------------------|
----------------------------|--------------------------|-----------------------|
----------------------------|--------------------------|-----------------------|
-----8-----8--8-10-8---7-8--|-----8-----7-----3-----5--|-----3------3---3---3--|
--0-----0-------------------|--0-----0-----0-----0-----|--0---------3---3---3--|


                                                        
--------------------------|----------------------------|
--------------------------|----------------------------|
--------------------------|----------------------------|
--------------------------|----------------------------|
-----8-----7-----3-----5--|-----8-----8--8-10-8---7-8--|
--0-----0-----0-----0-----|--0-----0-------------------|


                                                                              
--------------------------|-----------------------|--------------------------|
--------------------------|-----------------------|--------------------------|
--------------------------|-----------------------|--------------------------|
--------------------------|-----------------------|--------------------------|
-----8-----7-----3-----5--|-----3------0---0---0--|-----8-----7-----3-----5--|
--0-----0-----0-----0-----|--0---------0---0---0--|--0-----0-----0-----0-----|


                                                                                
----------------------------|--------------------------|-----------------------|
----------------------------|--------------------------|-----------------------|
----------------------------|--------------------------|-----------------------|
----------------------------|--------------------------|-----------------------|
-----8-----8--8-10-8---7-8--|-----8-----7-----3-----5--|-----3------3---3---3--|
--0-----0-------------------|--0-----0-----0-----0-----|--0---------3---3---3--|


                             
----------------------|----||
----------------------|----||
----------------------|----||
----------------------|----||
---3---3---3---0------|----||
---3---3---3---0------|----||
Suggest correction
Creating personal tab
Creating personal tab
You can edit any tab online and save it as your Personal.

You can edit, replace or remove any tab part or add personal notes – all changes will be seen only by you.

Personal tabs can be accessed anytime from any device, even offline.
Learn more »
comments
print report bad tab
12 comments total. Showing first comments.
0 reply
Bremsspur 132 Aug 09, 2007 04:49 AM

Great tab! 5*
but I#m not really sure about that part:
|--------------------|
|------------------------|--------------------------|
|------------------------|--------------------------|
|------------------------|--------------------------|
|--0----5--7--5--7-------|--------------------------|
|--0----3--5--3--5----5--|--3--1--0--1--3--5----0-0-|
|--0---------------------|----------------------0-0-|
anyway.. good job!

0 reply
Bremsspur 132 Aug 09, 2007 04:50 AM

oh.. I mean the -5--3--1--0--1--3--5-

0 reply
kempo1222 61 Aug 09, 2007 12:21 PM

hey thanks and im sorry aboout not putting hte palm muting

guest
You may want to rate the tab now too:
select rating
Wanna post a correction for this tab? Suggest correction