Oops, an error
Loading. Please wait.

No Easy Way Out Tab

version 1
version 1

Whole song

Interactive

73,392 views 33 this week
22 commentsread comments
1 2 3 4 5
excellent!
x 12
add to favorites
launch autoscroll
font size
0
reset
how to read this tab
guitar tuner
Tab Pro tools
  • play this tab
  • loop segment
  • change instrument
  • show fretboard
  • metronome
×
Best way to learn
"No Easy Way Out"
Autoscroll
slow
fast
+/-
esc
set tempo
stop
Contributor
Difficulty
Tuning
intermediate
D G C F A D
Tabbed By - BeatUpJeanie

Edited at 08/03/2013

I tabbed this by ear, except for the last solo 

/ - Slide Up
\ - Slide Down
h - Hammer On
p - Pull Off
b - Bend
r - release bend
~ - Vibrato
LR - Let Ring
x - Dead Note
+ - Harmonic
. - Palm mute

Tuning - ONE STEP DOWN

Intro x4 (On the very last part, let ring)
D|-------------------|
A|-------------------|
F|-------------------|
C|-7x-999x-555-/-9-7-|
G|-5x-777x-333-/-7-5-|
D|-------------------|

Fill
D|----------------| |-----|
A|----------------| |-----|
F|----------------| |-----|
C|-22-222--22-222-| |-222-|
G|-22-222--22-222-| |-222-|
D|-00-000--00-000-| |-000-|
                      ...

Verse RIFF 1 (Same Rhythm As Above)
D|--------------------------------| |-----|
A|--------------------------------| |-----|
F|---------77-777--55-555--44-444-| |-444-|
C|-22-222--77-777--55-555--44-444-| |-444-|
G|-22-222--55-555--33-333--22-222-| |-222-|
D|-00-000-------------------------| |-----|
                                      ...

RIFF 2 (Ends in a pick slide)
D|--------------------|
A|--------------------|
F|------7LR--5LR--4LR-|
C|-2LR--7LR--5LR--4LR-|
G|-2LR--5LR--3LR--2LR-|
D|-0LR----------------|

Repeat Intro
Repeat Verse, Riff 1 and Riff 2
Repeat Intro (But end on the second last chord)

SOLO
D|---------------------------------------13LR-12LR-|
A|-----------------------5-5~-/-8-10b-8------------|
F|-----------------7-5-4---------------------------|
C|-2LR-2-4-5-7-5-4---------------------------------|
G|-------------------------------------------------|
D|-------------------------------------------------|

D|-15b-15b-15b-15b---15b-12-19b-17----------|
A|---------------------------------------19-|
F|------------------------------------------|
C|---------------------14-------------------|
G|------------------------------------------|
D|------------------------------------------|

Fill
D|---------|
A|---------|
F|---------|
C|-2-2-2LR-|
G|-2-2-2LR-|
D|-0-0-0LR-|

Repeat Riff 2

Rhythm guitar will then repeat the Intro for the rest of the song


Lead solo - Play until the end (thanks to slash_5150)
D|--------------------------------------------------------------|
A|-------15------------------------15---------------------------|
F|-11-12-----11-12-----------11-12----11-12----12-14b-16-14--12-|
C|-----------------14~--12~-----------------14------------------|
G|--------------------------------------------------------------|
D|--------------------------------------------------------------|

D|------------------------------------------------------------|
A|-------------15----------------------15-------15b-r15p13-15~|
F|-11-12----11----11-12----------11-12----11-12---------------|
C|-------14-------------14~-12~-------------------------------|
G|------------------------------------------------------------|
D|------------------------------------------------------------|

Harmony solo (thanks to slash_5150)
D|-------15----------------------15~~~~~~-------14~~|
A|-10-12----10-12----------10-12----------10h12-----|
F|----------------12~--11~--------------------------|
C|--------------------------------------------------|
G|--------------------------------------------------|
D|--------------------------------------------------|

Good luck!
comments
print report bad tab
22 comments total. Showing first comments.
+1 reply
XSider wrote on April 5 2008, 12:07 pm

The intro is not that you've written down there. It has some kind of effect but that's not that, I cannot figure it out.

+3 reply
BeatUpJeanie wrote on April 8 2008, 10:50 am

it fits nicely when I play, may not be the exact chords but it sounds right?

+2 reply
childofkorn wrote on April 21 2008, 07:34 am

I think the intro thing is played by a keyboard. But anyways there is a lot missing notes in this tab. sorry

I want to post or [tab]
guest
You may want to rate the tab now too:
select rating
Please do not post tabs as comments. Select "correction" instead!