Oops, an error
Loading. Please wait.
We have an official No Way Out tab made by UG professional guitarists. Check out the tab »
×
2,634 views 24 this week
no commentswrite comment
1 2 3 4 5
x 3
add to favorites
×
Save as Personal and add changes to this tab that will be seen only by you. Learn more ›
×
You can save this tab as Personal to edit and correct it or add notes. All changes will be seen only by you. Learn more »
launch autoscroll
font size
0
reset
how to read this tab
guitar tuner
backing track
0:00
0:00
edit
Autoscroll
slow
fast
+/-
esc
set tempo
stop
------------------------------------------------------------------------------------------------------
                             No Way Out - Bullet For My Valentine - Venom
------------------------------------------------------------------------------------------------------
Tabbed by: randomdemon11
E-mail: randomdemon@hotmail.co.uk

Tuning: Drop C
Pace: 140bpm

Hi, guys! I am a big fan of BFMV and am absolutely loving their new album. I came here to learn one of
my favourite songs from this album, but to my dismay, the solo wasn't included in the tabs. (aside from
the Guitar Pro versions). In addition, not all of the guitar parts were tabbed out - often only one of the
guitars were shown. So, I learned everything by ear and slowed down the solo to get the melody right note for
note. I have also included the harmonies and the neglected backing guitar parts.

The timings shown are for the Spotify version of No Way Out from the full album, Venom, though I'm sure they'll
be accurate enough for other versions and the YouTube official lyrics video. For help with timing, the quavers
of each bar are represented by the "1 & 2 & 3 & 4 &". Side note: some of the sections have had the spacing
between the "1 & 2 & 3 & 4 &" modified to accommodate for those pesky double digit frets (and the solo)
and keep everything in line. Rhythm is important. For further guidance, I've also added lyrics alongside
some of the sections, so you don't lose track of where you are.

I've put the guitar parts next to each other in their relative sections rather than tabbing all of
guitar 1 and then all of guitar 2 so it'll be easier to see what's going on when. Sometimes, there's an
additional guitar(Guitar 3) for when harmonies are introduced. This is a recorded guitar and has been laid on
top of Matt and Padge's guitars.

Enjoy the tab!

Intro                (0:00 - 0:14)
Verse 1              (0:14 - 0:42)
Pre-Chorus           (0:42 - 0:48)
Chorus               (0:48 - 1:12)
Pre-Verse            (1:12 - 1:19)
Verse 2              (1:19 - 1:46)
Pre-Chorus           (1:46 - 1:53)
Chorus               (1:53 - 2:18)
Bridge               (2:18 - 2:45)
Solo                 (2:45 - 2:59)
Pre-Chorus Variation (2:59 - 3:12)
Chorus               (3:12 - 3:36)
Outro                (3:36 - 3:53)



Intro (0:00 - 0:14)

Guitars 1 and 2

   1    &    2   &    3    &   4    &    
D|-----------------------------------------|
A|-----------------------------------------|
F|-----------------------------------------| x8
C|-----------------------------------------|
G|-----------------------------------------|
C|-15-0-0-12-0-0-14-0-0-10-0-0-12-0-14-0---|

  NO WAY OOOOOOOOOUUUUUUUUUT!



Verse 1 (0:14 - 0:42)

Guitar 1

   1   &   2   &   3   &   4   &     1   &   2   &   3   &   4   &    
D|---------------------------------|-----------------------------------|
A|---------------------------------|-----------------------------------|
F|---------------------------------|-----------------------------------|
C|---------------------------------|-----------------2h3p2p0h2p0h2h3---|
G|-0---0-0---0-0---0---0-0---0-0---|-----0-0---0-0---------------------|---|
C|-0---0-0---0-0---0---0-0---0-0---|-----0-0---0-0---------------------|   |
       . .   . .       . .   .           . .   .                           |
LOOKING OUT STANDING OVER THE EDGE!                                        | x2
                                                                           |
   1   &   2   &   3   &   4   &     1   &   2   &   3   &   4   &         |
D|---------------------------------|-----------------------------------|   |
A|---------------------------------|-----------------------------------|---|
F|---------------------------------|-----------------------------------| 
C|---------------------------------|-3-----2-----3---5-----3-----2-----|
G|-0---0-0---0-0---0---0-0---0-0---|-3-----2-----3---5-----3-----2-----|
C|-0---0-0---0-0---0---0-0---0-0---|-3-----2-----3---5-----3-----2-----|
       . .   . .       . .   .           
TOO NUMB TO FEEL ALIVE!

Guitar 2

   1   &   2   &   3   &   4   &     1   &   2   &   3   &   4   &    
D|---------------------------------|-----------------------------------|
A|---------------------------------|-----------------------------------|
F|---------------------------------|-----------------------------------|
C|---------------------------------|-----------------5h7p5p3h5p3h5h7---|
G|-0---0-0---0-0---0---0-0---0-0---|-----0-0---0-0---------------------|---|
C|-0---0-0---0-0---0---0-0---0-0---|-----0-0---0-0---------------------|   |
       . .   . .       . .   .           . .   .                           | 
LOOKING OUT STANDING OVER THE EDGE!                                        | x2
                                                                           |
   1   &   2   &   3   &   4   &     1   &   2   &   3   &   4   &         |
D|---------------------------------|-----------------------------------|   |
A|---------------------------------|-----------------------------------|---|
F|---------------------------------|-----------------------------------| 
C|---------------------------------|-3-----2-----3---5-----3-----2-----|
G|-0---0-0---0-0---0---0-0---0-0---|-3-----2-----3---5-----3-----2-----|
C|-0---0-0---0-0---0---0-0---0-0---|-3-----2-----3---5-----3-----2-----|
       . .   . .       . .   .           
TOO NUMB TO FEEL ALIVE!

Guitar 1

   1   &   2   &   3   &   4   &     1   &   2   &   3   &   4   &     
D|---------------------------------|---------------------------------|
A|---------------------------------|---------------------------------|
F|---------------------------------|---------------------------------|
C|---------------------------------|---------------------------------|
G|-0---0-0~--0-0~--0-0-0-0~--0-0~--|-----0-0~--0-0~--0~--0-0~--0-0~--|---|
C|-0---0-0~--0-0~--0-0-0-0~--0-0~--|-----0-0~--0-0~--0~--0-0~--0-0~--|   |
       . .   . .   . . . .   . .         . .   . .   .   . .   . .       |
Still nothing feels the same.                                            | x2
                                                                         |
   1   &   2   &   3   &   4   &     1   &   2   &   3   &   4   &       |
D|---------------------------------|---------------------------------|   |
A|---------------------------------|---------------------------------|---|
F|---------------------------------|---------------------------------|
C|---------------------------------|-3-----2-----3---5-----3-----2---|
G|-0---0-0~--0-0~--0-0-0-0~--0-0~--|-3-----2-----3---5-----3-----2---|
C|-0---0-0~--0-0~--0-0-0-0~--0-0~--|-3-----2-----3---5-----3-----2---|
       . .   . .   . . . .   . .      
Too late to hesitate.

Guitar 2

   1   &   2   &   3   &   4   &     1   &   2   &   3   &   4   &   
D|---------------------------------|---------------------------------|
A|-5tr^6-(the bend is very delayed)|-(6tr)---------------------------|
F|-------(pick at semiquaver pace)-|---------------------------------| x3
C|---------------------------------|---------------------------------|
G|---------------------------------|---------------------------------|
C|---------------------------------|---------------------------------|

Still nothing feels the same.

   1   &   2   &   3   &   4   &     1   &   2   &   3   &   4   &   
D|---------------------------------|---------------------------------|
A|-5tr-----------------------------|---------------------------------|
F|-------(pick at semiquaver pace)-|---------------------------------| x3
C|---------------------------------|-3-----2-----3---5-----3-----2---|
G|---------------------------------|-3-----2-----3---5-----3-----2---|
C|---------------------------------|-3-----2-----3---5-----3-----2---|

AND LIVE AGAIN!


Pre-Chorus (0:42 - 0:48)

Guitar 1

   1   &   2   &   3   &   4   &     1   &   2   &   3   &   4   &    
D|---------------------------------|---------------------------------|
A|---------------------------------|---------------------------------|
F|---------------------------------|---------------------------------|
C|-0~------------------------------|---------------------------------|
G|-0~------------------------------|---------------------------------|
C|-0~------------------------------|---------------------------------|

                                     Why can't I run...

   1   &   2   &   3   &   4   &     1   &   2   &   3   &   4   &    
D|---------------------------------|---------------------------------|
A|---------------------------------|---------------------------------|
F|-5~------------------------------|---------------------------------|
C|-5~------------------------------|---------------------------------|
G|-3~------------------------------|---------------------------------|
C|---------------------------------|---------------------------------|

And escape from myself?

Guitar 2

   1   &   2   &   3   &   4   &     1   &   2   &   3   &   4   &     
D|---------------------------------|---------------------------------|
A|-------------5~~~~~~~~~~~~~~~~~~~|~~~~~~~~~~~~~~~~~~~~~~~~~~~~~~~~~|
F|-2~~~~~~~~~~~~~~~~~~~~~~~~~~~~~~~|~~~~~~~~~~~~~~~~~~~~~~~~~~~~~~~~~|
C|---------------------------------|---------------------------------|
G|---------------------------------|---------------------------------|
C|---------------------------------|---------------------------------|

                                     Why can't I run...

   1   &   2   &   3   &   4   &     1   &   2   &   3   &   4   &     
D|---------------------------------|---------------------------------|
A|-------------8~~~~~~~~~~~~~~~~~~~|~~~~~~~~~~~~~~~~~~~~~~~~~~~~~~~~~|
F|-5~~~~~~~~~~~~~~~~~~~~~~~~~~~~~~~|~~~~~~~~~~~~~~~~~~~~~~~~~~~~~~~~~|
C|---------------------------------|---------------------------------|
G|---------------------------------|---------------------------------|
C|---------------------------------|---------------------------------|

And escape from myself?



Chorus (0:48 - 1:12)

Guitar 1

   1   &   2   &   3   &   4   &     1   &   2   &   3   &   4   &   
D|---------------------------------|---------------------------------|
A|---------------------------------|---------------------------------|
F|-3-----3-----3---3-----3-----3---|-5-----5-----5---5-----5-----5---|
C|-3-----3-----3---3-----3-----3---|-5-----5-----5---5-----5-----5---|
G|-1-----1-----1---1-----1-----1---|-3-----3-----3---3-----3-----3---|---|
C|---------------------------------|---------------------------------|   |
                                                                         |
...feel like there's no way out?                                         |
                                                                         | x2
   1   &   2   &   3   &   4   &     1   &   2   &   3   &   4   &       |
D|---------------------------------|---------------------------------|   |
A|---------------------------------|---------------------------------|---|
F|---------------------------------|---------------------------------|
C|-0-----0-----0---0-----0-----0---|-0-----0-----0---0-----0-----0---|
G|-0-----0-----0---0-----0-----0---|-0-----0-----0---0-----0-----0---|
C|-0-----0-----0---0-----0-----0---|-0-----0-----0---0-----0-----0---|
         .     .         .     .           .     .         .     .
                                                     Trying hard to...

   1   &   2   &   3   &   4   &     1   &   2   &   3   &   4   &   
D|---------------------------------|---------------------------------|
A|---------------------------------|---------------------------------|
F|-3-----3-----3---3-----3-----3---|-5-----5-----5---5-----5-----5---|
C|-3-----3-----3---3-----3-----3---|-5-----5-----5---5-----5-----5---|
G|-1-----1-----1---1-----1-----1---|-3-----3-----3---3-----3-----3---|
C|---------------------------------|---------------------------------|

...feel this way...

   1   &   2   &   3   &   4   &     1   &   2   &   3   &   4   &   
D|---------------------------------|---------------------------------|
A|---------------------------------|---------------------------------|
F|-2-----2-----2---2-----2-----2---|-3-----3-----3---3-----3-----3---|
C|-2-----2-----2---2-----2-----2---|-3-----3-----3---3-----3-----3---|
G|-0-----0-----0---0-----0-----0---|-1-----1-----1---1-----1-----1---|
C|---------------------------------|---------------------------------|

...hard cus I know...

   1   &   2   &   3   &   4   &     1   &   2   &   3   &   4   &   
D|---------------------------------|---------------------------------|
A|---------------------------------|---------------------------------|
F|-3-----3-----3---3-----3-----3---|-5-----5-----5---5-----5-----5---|
C|-3-----3-----3---3-----3-----3---|-5-----5-----5---5-----5-----5---|
G|-1-----1-----1---1-----1-----1---|-3-----3-----3---3-----3-----3---|
C|---------------------------------|---------------------------------|

...end, there's no way out.

Guitar 2

   1    &    2   &    3    &   4    &    
D|-----------------------------------------|
A|-----------------------------------------|
F|-----------------------------------------| x14 (Plays throughout entire chorus)
C|-15-0-0-12-0-0-14-0-0-10-0-0-12-0-14-0---|
G|-----------------------------------------|
C|-----------------------------------------|

Cheeky Guitar 3

   1    &    2   &    3    &   4    &    
D|-----------------------------------------|
A|-----------------------------------------|
F|-----------------------------------------| x14 (Plays throughout entire chorus)
C|-19-0-0-15-0-0-17-0-0-14-0-0-15-0-17-0---|
G|-----------------------------------------|
C|-----------------------------------------|



Pre-Verse (1:12 - 1:19) - Same as Intro

Guitars 1 and 2

   1    &    2   &    3    &   4    &    
D|-----------------------------------------|
A|-----------------------------------------|
F|-----------------------------------------| x4
C|-----------------------------------------|
G|-----------------------------------------|
C|-15-0-0-12-0-0-14-0-0-10-0-0-12-0-14-0---|



Verse 2 (1:19 - 1:46) - Same as Verse 1

Pre-Chorus (1:46 - 1:53)

Chorus (1:53 - 2:18)



Bridge (2:18 - 2:45)

Guitar 1

   1   &   2   &   3   &   4   &      
D|---------------------------------|
A|---------------------------------|
F|---------------------------------|
C|-0~------------------------------| (Let ring for 8 bars)
G|-0~------------------------------|
C|-0~------------------------------|

Guitar 2 (Clean)

   1   &   2   &   3   &   4   &     1   &   2   &   3   &   4   &    
D|---------------------------------|---------------------------------|
A|-------------6~~~~~~~~~~~~~~~~~~~|~~~~~~~~~~~~~~~~~~~~~~~~~~~~~~~~~|
F|---------------------------------|---------------------------------|
C|-------7~~~~~~~~~~~~~~~~~~~~~~~~~|~~~~~~~~~~~~~~~~~~~~~~~~~~~~~~~~~|
G|-5~~~~~~~~~~~~~~~~~~~~~~~~~~~~~~~|~~~~~~~~~~~~~~~~~~~~~~~~~~~~~~~~~|
C|---------------------------------|---------------------------------|

   1   &   2   &   3   &   4   &     1   &   2   &   3   &   4   &    
D|---------------------------------|---------------------------------|
A|-------------5~~~~~~~~~~~~~~~~~~~|~~~~~~~~~~~~~~~~~~~~~~~~~~~~~~~~~|
F|---------------------------------|---------------------------------|
C|-------5~~~~~~~~~~~~~~~~~~~~~~~~~|~~~~~~~~~~~~~~~~~~~~~~~~~~~~~~~~~|
G|-3~~~~~~~~~~~~~~~~~~~~~~~~~~~~~~~|~~~~~~~~~~~~~~~~~~~~~~~~~~~~~~~~~|
C|---------------------------------|---------------------------------|

   1   &   2   &   3   &   4   &     1   &   2   &   3   &   4   &    
D|---------------------------------|---------------------------------|
A|-------------3~~~~~~~~~~~~~~~~~~~|~~~~~~~~~~~~~~~~~~~~~~~~~~~~~~~~~|
F|---------------------------------|---------------------------------|
C|-------3~~~~~~~~~~~~~~~~~~~~~~~~~|~~~~~~~~~~~~~~~~~~~~~~~~~~~~~~~~~|
G|-1~~~~~~~~~~~~~~~~~~~~~~~~~~~~~~~|~~~~~~~~~~~~~~~~~~~~~~~~~~~~~~~~~|
C|---------------------------------|---------------------------------|

   1   &   2   &   3   &   4   &     1   &   2   &   3   &   4   &    
D|---------------------------------|---------------------------------|
A|-------------5~~~~~~~~~~~~~~~~~~~|~~~~~~~~~~~~~~~~~~~~~~~~~~~~~~~~~|
F|---------------------------------|---------------------------------|
C|-------5~~~~~~~~~~~~~~~~~~~~~~~~~|~~~~~~~~~~~~~~~~~~~~~~~~~~~~~~~~~|
G|-3~~~~~~~~~~~~~~~~~~~~~~~~~~~~~~~|~~~~~~~~~~~~~~~~~~~~~~~~~~~~~~~~~|
C|---------------------------------|---------------------------------|

Guitar 1

   1   &   2   &   3   &   4   &     1   &   2   &   3   &   4   &        
D|---------------------------------|---------------------------------|
A|---------------------------------|---------------------------------|
F|---------------------------------|---------------------------------|
C|-7---7---7---7-------7---7---7---|-----7---7---7-------7---7---7---|
G|-5---5---5---5-------5---5---5---|-----5---5---5-------5---5---5---|
C|---------------------------------|---------------------------------|
   .   .   .   .       .   .   .         .   .   .       .   .   .
There's nothing left for me,

   1   &   2   &   3   &   4   &     1   &   2   &   3   &   4   &        
D|---------------------------------|---------------------------------|
A|---------------------------------|---------------------------------|
F|---------------------------------|---------------------------------|
C|-----5---5---5-------5---5---5---|-----5---5---5-------5---5---5---|
G|-----3---3---3-------3---3---3---|-----3---3---3-------3---3---3---|
C|---------------------------------|---------------------------------|
       .   .   .       .   .   .         .   .   .       .   .   .
Just tainted memories.

   1   &   2   &   3   &   4   &     1   &   2   &   3   &   4   &        
D|---------------------------------|---------------------------------|
A|---------------------------------|---------------------------------|
F|-(Yes, the bar starts with a muted A# power chord, not a typo)-----|
C|-5---3---3---3-------3---3---3---|-----3---3---3-------3---3---3---|
G|-3---1---1---1-------1---1---1---|-----1---1---1-------1---1---1---|
C|---------------------------------|---------------------------------|
   .   .   .   .       .   .   .         .   .   .       .   .   .
There's no one here for me,

   1   &   2   &   3   &   4   &     1   &   2   &   3   &   4   &        
D|---------------------------------|---------------------------------|
A|---------------------------------|---------------------------------|
F|---------------------------------|---------------------------------|
C|-2---2---2---2---2---2---2---2---|-2---2---2---2---2---2---2---2---|
G|-0---0---0---0---0---0---0---0---|-0---0---0---0---0---0---0---0---|
C|---------------------------------|---------------------------------|
   .   .   .   .   .   .   .   .     .   .   .   .   .   .   .   .
Just let me BE!

Guitar 2

   1   &   2   &   3   &   4   &     1   &   2   &   3   &   4   &        
D|---------------------------------|---------------------------------|
A|---------------------------------|---------------------------------|
F|-10~-------------9~--------------|-10~-------------12~-------------|
C|---------------------------------|---------------------------------|
G|---------------------------------|---------------------------------|
C|---------------------------------|---------------------------------|
 
There's nothing left for me,

   1   &   2   &   3   &   4   &     1   &   2   &   3   &   4   &        
D|---------------------------------|---------------------------------|
A|---------------------------------|---------------------------------|
F|-7~------------- 9~--------------|-10~-------------9~--------------|
C|---------------------------------|---------------------------------|
G|---------------------------------|---------------------------------|
C|---------------------------------|---------------------------------|

Just tainted memories.

   1   &   2   &   3   &   4   &     1   &   2   &   3   &   4   &        
D|---------------------------------|---------------------------------|
A|---------------------------------|---------------------------------|
F|-7~-------------9~---------------|-10~-------------12~-------------|
C|---------------------------------|---------------------------------|
G|---------------------------------|---------------------------------|
C|---------------------------------|---------------------------------|

There's no one here for me,

   1   &   2   &   3   &   4   &     1   &   2   &   3   &   4   &        
D|---------------------------------|---------------------------------|
A|---------------------------------|---------------------------------|
F|-10~-------------9~--------------|-7~-------------6~---------------|
C|---------------------------------|---------------------------------|
G|---------------------------------|---------------------------------|
C|---------------------------------|---------------------------------|

Just let me BE!

Cheeky Guitar 3

   1   &   2   &   3   &   4   &     1   &   2   &   3   &   4   &        
D|---------------------------------|---------------------------------|
A|---------------------------------|---------------------------------|
F|-14~-------------12~-------------|-14~-------------15~-------------|
C|---------------------------------|---------------------------------|
G|---------------------------------|---------------------------------|
C|---------------------------------|---------------------------------|

There's nothing left for me,

   1   &   2   &   3   &   4   &     1   &   2   &   3   &   4   &        
D|---------------------------------|---------------------------------|
A|---------------------------------|---------------------------------|
F|-10~-------------12~-------------|-14~-------------12~-------------|
C|---------------------------------|---------------------------------|
G|---------------------------------|---------------------------------|
C|---------------------------------|---------------------------------|

Just tainted memories.

   1   &   2   &   3   &   4   &     1   &   2   &   3   &   4   &        
D|---------------------------------|---------------------------------|
A|---------------------------------|---------------------------------|
F|-10~-------------12~-------------|-14~-------------15~-------------|
C|---------------------------------|---------------------------------|
G|---------------------------------|---------------------------------|
C|---------------------------------|---------------------------------|

There's no one here for me,

   1   &   2   &   3   &   4   &     1   &   2   &   3   &   4   &        
D|---------------------------------|---------------------------------|
A|---------------------------------|---------------------------------|
F|-14~-------------12~-------------|-10~-------------9~--------------|
C|---------------------------------|---------------------------------|
G|---------------------------------|---------------------------------|
C|---------------------------------|---------------------------------|

Just let me BE!



Solo (2:45 - 2:59)

Guitar 1

   1   &   2   &   3   &   4   &     1   &   2   &   3   &   4   &        
D|---------------------------------|---------------------------------|
A|---------------------------------|---------------------------------|
F|---------------------------------|---------------------------------| x2
C|---------------------------------|---------------------------------|
G|-0---0---0---0-------0---0---0---|-----0---0---0---0---0---0---0---|
C|-0---0---0---0-------0---0---0---|-----0---0---0---0---0---0---0---|
   .   .   .   .       .   .   .         .   .   .   .   .   .   .

Guitar 2

   1   &   2   &   3   &   4   &     1   &   2   &   3   &   4   &        
D|---------------------------------|---------------------------------|
A|---------------------------------|-----------------8---------------|
F|-------------7---------------10--|-9-------9-----------7-----------|
C|-0---7---0-------0---7---0-------|-----7-------7-----------7-------|
G|---------------------------------|-----------------------------8---|
C|---------------------------------|---------------------------------|
   .       .       .       .             .       .        

   1   &   2   &   3   &   4   &     1   &   2   &   3   &   4   &        
D|---------------------------------|-----------------8---------------|
A|---------------------------------|---------------------------------|
F|-------------7---------------10--|-9-------9-----------10--9---7---|
C|-0---7---0-------0---7-----------|-----7-------7-------------------|
G|---------------------------------|---------------------------------|
C|---------------------------------|---------------------------------|
   .       .       .       .             .       .        

Guitar 1

   1   &   2   &   3   &   4   &     1   &   2   &   3   &   4   &        
D|---------------------------------|---------------------------------|
A|---------------------------------|---------------------------------|
F|-(Rhythm change - syncopated (off beat) chords)--------------------|
C|---------------------------------|---------------------------------|
G|-0---0-0---0-0-------0-0---0-0---|-----0-0---0-0---0---0-0---0-0---|
C|-0---0-0---0-0-------0-0---0-0---|-----0-0---0-0---0---0-0---0-0---|
       . .   . .       . .   . .         . .   . .   .   . .   . .   

Guitar 2

   1     &     2     &     3     &     4     &       1     &     2     &     3     &     4     &         
D|-15h17p15p13h15p13----13-------------------------|-------------------------------------------------|
A|-------------------17----15h17p15p13h15p13----13-|-------------------------------------------------|
F|-------------------------------------------15----|-14h15p14p12h14p12\10h12-12~~~~~~~~~~~~~~~~~~~~~~|
C|-------------------------------------------------|-------------------------------------------------|
G|-(each note is a semiquaver)---------------------|----(the slide is because of the way your fingers|
C|-------------------------------------------------|-----are positioned, so it's not a pull off)-----|


Cheeky Guitar 3

   1     &     2     &     3     &     4     &       1     &    2    &   3     &     4     &         
D|-12h13p12p10h12p10----10-------------------------|---------------------------------------------|
A|-------------------13----11h13p11p10h11p10----10-|---------------------------------------------|
F|-------------------------------------------12----|-10h12p10\9h10p9\7h9-9~~~~~~~~~~~~~~~~~~~~~~~|
C|-------------------------------------------------|---------------------------------------------|
G|-(each note is a semiquaver)---------------------|----(the slides are because of the way your fingers
C|-------------------------------------------------|-----are positioned, so they're not pull offs)

Guitar 1

   1   &   2   &   3   &   4   &     1   &   2   &   3   &   4   &    
D|---------------------------------|---------------------------------|
A|---------------------------------|---------------------------------|
F|---------------------------------|---------------------------------|
C|---------------------------------|-3-----2-----3---5-----3-----2---|
G|-0-----------0-------0-----------|-3-----2-----3---5-----3-----2---|
C|-0-----------0-------0-----------|-3-----2-----3---5-----3-----2---|
               .       .    

Guitar 2

   1     &     2     &     3     &     4     &       1     &     2     &     3     &     4     &         
D|-------10-10t13t17-10t13t18-10t13t15-10t13t17p13p|-10----10-------10-10t13t17-10t13t18-10t13t20p13t|
A|----10-------------------------------------------|----10-------10----------------------------------|
F|-10----------------------------------------------|----------10-------------------------------------|
C|-------------------------------------------------|-------------------------------------------------|
G|-(Quick sweep, tapping, more sweeping, more tapping)-----------------------------------------------|
C|-(And yes, those 10s are repeated just before the taps)--------------------------------------------|

   1   &   2   &   3   &   4   &   
D|-22~~~~~~~~~~~~~~~~~~~~~~~~~~~~~~|
A|---------------------------------|
F|-(Put that vibrato finger to work)
C|---------------------------------|
G|---------------------------------|
C|---------------------------------|



Pre-Chorus Variation (2:59 - 3:12)

Guitar 1

   1   &   2   &   3   &   4   &     1   &   2   &   3   &   4   &    
D|---------------------------------|---------------------------------|
A|---------------------------------|---------------------------------|
F|---------------------------------|---------------------------------|
C|-0~------------------------------|---------------------------------|
G|-0~------------------------------|---------------------------------|
C|-0~------------------------------|---------------------------------|

                                     Why can't I run...

   1   &   2   &   3   &   4   &     1   &   2   &   3   &   4   &    
D|---------------------------------|---------------------------------|
A|---------------------------------|---------------------------------|
F|---------------------------------|---------------------------------|
C|-0~------------------------------|---------------------------------|
G|-0~------------------------------|---------------------------------|
C|-0~------------------------------|---------------------------------|

And escape from myself?

   1   &   2   &   3   &   4   &     1   &   2   &   3   &   4   &    
D|---------------------------------|---------------------------------|
A|---------------------------------|---------------------------------|
F|---------------------------------|---------------------------------|
C|-0~------------------------------|---------------------------------|
G|-0~------------------------------|---------------------------------|
C|-0~------------------------------|---------------------------------|

                                     I just can't tell...

   1   &   2   &   3   &   4   &     1   &   2   &   3   &   4   &    
D|---------------------------------|---------------------------------|
A|---------------------------------|---------------------------------|
F|-5~------------------------------|---------------------------------|
C|-5~------------------------------|---------------------------------|
G|-3~------------------------------|---------------------------------|
C|---------------------------------|---------------------------------|

What is real anymore.

Guitar 2 (technically still holding 22 from the solo, but studio)

   1   &   2   &   3   &   4   &     1   &   2   &   3   &   4   &     
D|---------------------------------|---------------------------------|
A|-------------5~~~~~~~~~~~~~~~~~~~|~~~~~~~~~~~~~~~~~~~~~~~~~~~~~~~~~|
F|-2~~~~~~~~~~~~~~~~~~~~~~~~~~~~~~~|~~~~~~~~~~~~~~~~~~~~~~~~~~~~~~~~~|
C|---------------------------------|---------------------------------|
G|---------------------------------|---------------------------------|
C|---------------------------------|---------------------------------|

                                     Why can't I run...

   1   &   2   &   3   &   4   &     1   &   2   &   3   &   4   &     
D|---------------------------------|---------------------------------|
A|-------------6~~~~~~~~~~~~~~~~~~~|~~~~~~~~~~~~~~~~~~~~~~~~~~~~~~~~~|
F|-3~~~~~~~~~~~~~~~~~~~~~~~~~~~~~~~|~~~~~~~~~~~~~~~~~~~~~~~~~~~~~~~~~|
C|---------------------------------|---------------------------------|
G|---------------------------------|---------------------------------|
C|---------------------------------|---------------------------------|

And escape from myself?

   1   &   2   &   3   &   4   &     1   &   2   &   3   &   4   &     
D|---------------------------------|---------------------------------|
A|-------------5~~~~~~~~~~~~~~~~~~~|~~~~~~~~~~~~~~~~~~~~~~~~~~~~~~~~~|
F|-2~~~~~~~~~~~~~~~~~~~~~~~~~~~~~~~|~~~~~~~~~~~~~~~~~~~~~~~~~~~~~~~~~|
C|---------------------------------|---------------------------------|
G|---------------------------------|---------------------------------|
C|---------------------------------|---------------------------------|

                                     I just can't tell...

   1   &   2   &   3   &   4   &     1   &   2   &   3   &   4   &     
D|---------------------------------|---------------------------------|
A|-------------8~~~~~~~~~~~~~~~~~~~|~~~~~~~~~~~~~~~~~~~~~~~~~~~~~~~~~|
F|-5~~~~~~~~~~~~~~~~~~~~~~~~~~~~~~~|~~~~~~~~~~~~~~~~~~~~~~~~~~~~~~~~~|
C|---------------------------------|---------------------------------|
G|---------------------------------|---------------------------------|
C|---------------------------------|---------------------------------|

What is real anymore.



Chorus (3:12 - 3:36)

Outro (3:36 - 3:53) - Play intro 6x, then play the first line of the verse once

************************************

| .   palm mute
| /   slide up
| \   slide down
| h   hammer-on
| p   pull-off
| ~   let ring/vibrato
| tr  tremolo
| t   tap
| +   harmonic
| x   Mute note
| ^   Bend
| pb  Pre-bend
| br  Bend release
| pbr Pre-bend release
| brb Bend release bend

************************************

            
            
Suggest correction
Creating personal tab
Creating personal tab
You can edit any tab online and save it as your Personal.

You can edit, replace or remove any tab part or add personal notes – all changes will be seen only by you.

Personal tabs can be accessed anytime from any device, even offline.
Learn more »
Give kudos to tab author, rate the tab!
1 2 3 4 5
comments
print report bad tab
guest
You may want to rate the tab now too:
select rating
Wanna post a correction for this tab? Suggest correction