Oops, an error
Loading. Please wait.

Pow Tab

version 1
version 1

Whole song

Interactive

33,035 views 42 this week
8 commentsread comments
1 2 3 4 5
x 24
add to favorites
×
Save as Personal and add changes to this tab that will be seen only by you. Learn more ›
launch autoscroll
font size
0
reset
how to read this tab
guitar tuner
backing track
0:00
0:00
Autoscroll
slow
fast
+/-
esc
set tempo
stop
Author
Difficulty
Tuning
intermediate
C G C F A D
I heard this song the first time, and i totally fall in love with it.
I tried the best I could to tab it for you, it's not 100% correct but it sounds good to me.
If you have some tips, adjustments or commentary, feel free to mail me at
PrayingForDarkness@gmail.com

The tricky part about this song is that every verse or chorus is a little different.

Tuning is Drop C.

[Intro]

[Padge] (Lead)
D|--5---5---5---5---5---5---4---4---4---4---4---4---5---5---5---5---5---5---4---4---4---4---4---4---|
A|----5---5---5---5---5---5---5---5---5---5---5---5---5---5---5---5---5---5---5---5---5---5---5---5-|
F|--------------------------------------------------------------------------------------------------|
C|--------------------------------------------------------------------------------------------------|
G|--------------------------------------------------------------------------------------------------|
C|--------------------------------------------------------------------------------------------------|

D|--5---5---5---5---5---5---4---4---4---4---4---4---2---2---2---2---2---2---2---2---4---4---4---4---|
A|----5---5---5---5---5---5---5---5---5---5---5---5---0---0---0---0---0---0---0---0---5---5---5---5-|
F|--------------------------------------------------------------------------------------------------|
C|--------------------------------------------------------------------------------------------------|
G|--------------------------------------------------------------------------------------------------|
C|--------------------------------------------------------------------------------------------------|

D|--5---5---5---5---5---5---4---4---4---4---4---4---5---5---5---5---5---5---5---5---5---4---4---4---|
A|----5---5---5---5---5---5---5---5---5---5---5---5---5---5---5---5---5---5---5---5---5---5---5---5-|
F|--------------------------------------------------------------------------------------------------|
C|--------------------------------------------------------------------------------------------------|
G|--------------------------------------------------------------------------------------------------|
C|--------------------------------------------------------------------------------------------------|

D|--5---5---5---5---5---5---4---4---4---4---4---4---2---2---2---2---2---2---2---2---4---4---4---4---|
A|----5---5---5---5---5---5---5---5---5---5---5---5---0---0---0---0---0---0---0---0---5---5---5---5-|
F|--------------------------------------------------------------------------------------------------|
C|--------------------------------------------------------------------------------------------------|
G|--------------------------------------------------------------------------------------------------|
C|--------------------------------------------------------------------------------------------------|

D|--5---5---5---5---5---5---4---4---4---4---4---4---5---5---5---5---5---5---5---5---5---4---4---4---|
A|----5---5---5---5---5---5---5---5---5---5---5---5---5---5---5---5---5---5---5---5---5---5---5---5-|
F|--------------------------------------------------------------------------------------------------|
C|--------------------------------------------------------------------------------------------------|
G|--------------------------------------------------------------------------------------------------|
C|--------------------------------------------------------------------------------------------------|

D|--5---5---5---5---5---5---4---4---4---4---4---4---2---2---2---2---2---2---2---2---2---2---2---2---|
A|----5---5---5---5---5---5---5---5---5---5---5---5---0---0---0---0---0---0---0---0---0---0---0---0-|
F|--------------------------------------------------------------------------------------------------|
C|--------------------------------------------------------------------------------------------------|
G|--------------------------------------------------------------------------------------------------|
C|--------------------------------------------------------------------------------------------------|

 [Matt] (Rhtythm)
D|--------------------------------------------------------------|
A|--------------------------------------------------------------|
F|--------------------------------------------------------------|
C|--/-----------0-------------2-------------4-------------2-2-2-|
G|--/-0-0--0--0-0---2-2--2--2-2---4-4--4--4-4---4-4--4--4-2-2-2-|
C|--/-0-0--0--0-0---2-2--2--2-2---4-4--4--4-4---4-4--4--4-2-2-2-|
     * *  *  *     * *  *  *     * *  *  *     * *  *  *

D|--------------------------------------------------------------|
A|--------------------------------------------------------------|
F|--------------------------------------------------------------|
C|--------------0-------------2-------------4-------------7-7-7-|
G|----0-0--0--0-0---2-2--2--2-2---4-4--4--4-4---4-4--4--4-7-7-7-|
C|----0-0--0--0-0---2-2--2--2-2---4-4--4--4-4---4-4--4--4-7-7-7-|
     * *  *  *     * *  *  *     * *  *  *     * *  *  *

D|--------------------------------------------------------------|
A|--------------------------------------------------------------|
F|--------------------------------------------------------------|
C|--------------0-------------2-------------4-------------2-2-2-|
G|----0-0--0--0-0---2-2--2--2-2---4-4--4--4-4---4-4--4--4-2-2-2-|
C|----0-0--0--0-0---2-2--2--2-2---4-4--4--4-4---4-4--4--4-2-2-2-|
     * *  *  *     * *  *  *     * *  *  *     * *  *  *

D|-------------------------------------------------------------------|
A|-------------------------------------------------------------------|
F|-------------------------------------------------------------------|
C|--------------0-------------2----------------------------------4r--|
G|----0-0--0--0-0---2-2--2--2-2---2--4-4-4---2--4-4-4---2--4-4-4-4r--|
C|----0-0--0--0-0---2-2--2--2-2---2--4-4-4---2--4-4-4---2--4-4-4-4r--|
     * *  *  *     * *  *  *     *  * * *   *  * * *   *  * * *

[Matt & Padge]
D|--------------------------------------------------|
A|--------------------------------------------------|
F|--------6-6-6-9-9-9-6-6-6-------6-6-6-9-9-9-6-6-6-|
C|--4-4-4-------------------4-4-4-------------------|
G|--------------------------------------------------|
C|--------------------------------------------------|
   * * * * * * * * * * * * * * * * * * * * * * * *

D|--------------------------------------------------|
A|--------------------------------------------------|
F|--------6-6-6-9-9-9-6-6-6-------6-6-6-9r----------|
C|--4-4-4-------------------4-4-4-------------------|
G|--------------------------------------------------|
C|--------------------------------------------------|
   * * * * * * * * * * * * (Slowly let it be louder)

 [Verse]
D|--------------------------------------------------|
A|--------------------------------------------------|
F|--------6-6-6-9-9-9-6-6-6-------6-6-6-9-9-9-6-6-6-| Repeat 2 times.
C|--4-4-4-------------------4-4-4-------------------|
G|--------------------------------------------------|
C|--------------------------------------------------|
   * * * * * * * * * * * * * * * * * * * * * * * *

D|--------------------------------------------------|
A|--------------------------------------------------|
F|--------------------------------------------------| Repeat 2 times.
C|--4-4-4-6-6-6-7-7-7-6-6-6-4-4-4-6-6-6-7-7-7-6-6-6-|
G|--------------------------------------------------|
C|--------------------------------------------------|
   * * * * * * * * * * * * * * * * * * * * * * * *

D|--------------------------------------------------|
A|--------------------------------------------------|
F|--------6-6-6-9-9-9-6-6-6-------6-6-6-9r----------|
C|--4-4-4-------------------4-4-4-------------------|
G|--------------------------------------------------|
C|--------------------------------------------------|
   * * * * * * * * * * * * * * * * * *

D|--------------------------------------------------|
A|--------------------------------------------------|
F|--------6-6-6-9-9-9-6-6-6-------6-6-6-9-9-9-6-6-6-| Repeat 2 times.
C|--4-4-4-------------------4-4-4-------------------|
G|--------------------------------------------------|
C|--------------------------------------------------|
   * * * * * * * * * * * * * * * * * * * * * * * *

D|--------------------------------------------------|
A|--------------------------------------------------|
F|--------------------------------------------------| Repeat 2 times.
C|--4-4-4-6-6-6-7-7-7-6-6-6-4-4-4-6-6-6-7-7-7-6-6-6-|
G|--------------------------------------------------|
C|--------------------------------------------------|
   * * * * * * * * * * * * * * * * * * * * * * * *

 [Matt]
D|------------------------------------------------------|
A|------------------------------------------------------|
F|------------------------------------------------------|
C|--4-4-4-4-4-4-4-4-6-6-6-6-6-6-6-6-7-7-7-7-7-7-7-7-9-/-|
G|----------------------------------------------------/-|
C|----------------------------------------------------/-|

 [Padge]
D|-------------------------------------------------------|
A|--5-5-5-5-5-5-5-5-7-7-7-7-7-7-7-7-9-9-9-9-9-9-9-9-12---|
F|-------------------------------------------------------|
C|-----------------------------------------------------/-|
G|-----------------------------------------------------/-|
C|-----------------------------------------------------/-|

[Chorus]

 Padge (Lead)
D|--5---5---5---5---5---5---4---4---4---4---4---4---5---5---5---5---5---5---5---5---5---4---4---4---|
A|----5---5---5---5---5---5---5---5---5---5---5---5---5---5---5---5---5---5---5---5---5---5---5---5-|
F|--------------------------------------------------------------------------------------------------|
C|--------------------------------------------------------------------------------------------------|
G|--------------------------------------------------------------------------------------------------|
C|--------------------------------------------------------------------------------------------------|

D|--5---5---5---5---5---5---4---4---4---4---4---4---2---2---2---2---2---2---2---2---4---4---4---4---|
A|----5---5---5---5---5---5---5---5---5---5---5---5---0---0---0---0---0---0---0---0---5---5---5---5-|
F|--------------------------------------------------------------------------------------------------|
C|--------------------------------------------------------------------------------------------------|
G|--------------------------------------------------------------------------------------------------|
C|--------------------------------------------------------------------------------------------------|

D|--5---5---5---5---5---5---4---4---4---4---4---4---5---5---5---5---5---5---5---5---5---4---4---4---|
A|----5---5---5---5---5---5---5---5---5---5---5---5---5---5---5---5---5---5---5---5---5---5---5---5-|
F|--------------------------------------------------------------------------------------------------|
C|--------------------------------------------------------------------------------------------------|
G|--------------------------------------------------------------------------------------------------|
C|--------------------------------------------------------------------------------------------------|

D|--5---5---5---5---5---5---4---4---4---4---4---4---2---2---2---2---2---2---2---2---2---2---2---2---|
A|----5---5---5---5---5---5---5---5---5---5---5---5---0---0---0---0---0---0---0---0---0---0---0---0-|
F|--------------------------------------------------------------------------------------------------|
C|--------------------------------------------------------------------------------------------------|
G|--------------------------------------------------------------------------------------------------|
C|--------------------------------------------------------------------------------------------------|

[Matt] (Rhtythm)
D|---------------------------------------------------------------|
A|---------------------------------------------------------------|
F|---------------------------------------------------------------|
C|-------------0-------------2-------------4-------------2-2-2---|
G|---0-0--0--0-0---2-2--2--2-2---4-4--4--4-4---4-4--4--4-2-2-2---|
C|---0-0--0--0-0---2-2--2--2-2---4-4--4--4-4---4-4--4--4-2-2-2---|
    * *  *  *     * *  *  *     * *  *  *     * *  *  *

D|--------------------------------------------------------------|
A|--------------------------------------------------------------|
F|--------------------------------------------------------------|
C|--------------0-------------2-------------4-------------7-7-7-|
G|----0-0--0--0-0---2-2--2--2-2---4-4--4--4-4---4-4--4--4-7-7-7-|
C|----0-0--0--0-0---2-2--2--2-2---4-4--4--4-4---4-4--4--4-7-7-7-|
     * *  *  *     * *  *  *     * *  *  *     * *  *  *

D|--------------------------------------------------------------|
A|--------------------------------------------------------------|
F|--------------------------------------------------------------|
C|--------------0-------------2-------------4-------------2-2-2-|
G|----0-0--0--0-0---2-2--2--2-2---4-4--4--4-4---4-4--4--4-2-2-2-|
C|----0-0--0--0-0---2-2--2--2-2---4-4--4--4-4---4-4--4--4-2-2-2-|
     * *  *  *     * *  *  *     * *  *  *     * *  *  *

D|-------------------------------------------------------------------|
A|-------------------------------------------------------------------|
F|-------------------------------------------------------------------|
C|--------------0-------------0----------------------------------4r--|
G|----0-0--0--0-0---0-0--0--0-0---2--4-4-4---2--4-4-4---2--4-4-4-4r--|
C|----0-0--0--0-0---0-0--0--0-0---2--4-4-4---2--4-4-4---2--4-4-4-4r--|
     * *  *  *     * *  *  *     *  * * *   *  * * *   *  * * *

[Matt & Padge]
D|--------------------------------------------------|
A|--------------------------------------------------|
F|--------6-6-6-9-9-9-6-6-6-------6-6-6-9-9-9-6-6-6-|
C|--4-4-4-------------------4-4-4-------------------|
G|--------------------------------------------------|
C|--------------------------------------------------|
   * * * * * * * * * * * * * * * * * * * * * * * *

D|--------------------------------------------------|
A|--------------------------------------------------|
F|--------6-6-6-9-9-9-6-6-6-------6-6-6-9r----------|
C|--4-4-4-------------------4-4-4-------------------|
G|--------------------------------------------------|
C|--------------------------------------------------|
   * * * * * * * * * * * * (Slowly let it be louder)

[Verse]
D|--------------------------------------------------|
A|--------------------------------------------------|
F|--------6-6-6-9-9-9-6-6-6-------6-6-6-9-9-9-6-6-6-| Repeat 2 times.
C|--4-4-4-------------------4-4-4-------------------|
G|--------------------------------------------------|
C|--------------------------------------------------|
   * * * * * * * * * * * * * * * * * * * * * * * *

D|--------------------------------------------------|
A|--------------------------------------------------|
F|--------------------------------------------------| Repeat 2 times.
C|--4-4-4-6-6-6-7-7-7-6-6-6-4-4-4-6-6-6-7-7-7-6-6-6-|
G|--------------------------------------------------|
C|--------------------------------------------------|
   * * * * * * * * * * * * * * * * * * * * * * * *

 Matt
D|------------------------------------------------------|
A|------------------------------------------------------|
F|------------------------------------------------------|
C|--4-4-4-4-4-4-4-4-6-6-6-6-6-6-6-6-7-7-7-7-7-7-7-7-9-/-|
G|----------------------------------------------------/-|
C|----------------------------------------------------/-|

 Padge
D|-------------------------------------------------------|
A|--5-5-5-5-5-5-5-5-7-7-7-7-7-7-7-7-9-9-9-9-9-9-9-9-12---|
F|-------------------------------------------------------|
C|-----------------------------------------------------/-|
G|-----------------------------------------------------/-|
C|-----------------------------------------------------/-|

[Chorus]
(Padge his part is still the same so I left it away)

 Matt (Rhtythm)
D|---------------------------------------------------------------|
A|---------------------------------------------------------------|
F|---------------------------------------------------------------|
C|-------------0-------------2-------------4-------------2-2-2---|
G|---0-0--0--0-0---2-2--2--2-2---4-4--4--4-4---4-4--4--4-2-2-2---|
C|---0-0--0--0-0---2-2--2--2-2---4-4--4--4-4---4-4--4--4-2-2-2---|
    * *  *  *     * *  *  *     * *  *  *     * *  *  *

D|--------------------------------------------------------------|
A|--------------------------------------------------------------|
F|--------------------------------------------------------------|
C|--------------0-------------2-------------4-------------7-7-7-|
G|----0-0--0--0-0---2-2--2--2-2---4-4--4--4-4---4-4--4--4-7-7-7-|
C|----0-0--0--0-0---2-2--2--2-2---4-4--4--4-4---4-4--4--4-7-7-7-|
     * *  *  *     * *  *  *     * *  *  *     * *  *  *

D|--------------------------------------------------------------|
A|--------------------------------------------------------------|
F|--------------------------------------------------------------|
C|--------------0-------------2-------------4-------------2-2-2-|
G|----0-0--0--0-0---2-2--2--2-2---4-4--4--4-4---4-4--4--4-2-2-2-|
C|----0-0--0--0-0---2-2--2--2-2---4-4--4--4-4---4-4--4--4-2-2-2-|
     * *  *  *     * *  *  *     * *  *  *     * *  *  *

D|-----------------------------------------------------------------------------|
A|-----------------------------------------------------------------------------|
F|-----------------------------------------------------------------------------|
C|--------------0-------------0----------------------------------4-4-4-4-4-4-4-|
G|----0-0--0--0-0---0-0--0--0-0---2--4-4-4---2--4-4-4---2--4-4-4-4-4-4-4-4-4-4-|
C|----0-0--0--0-0---0-0--0--0-0---2--4-4-4---2--4-4-4---2--4-4-4-4-4-4-4-4-4-4-|
     * *  *  *     * *  *  *     *  * * *   *  * * *   *  * * *

[Solo]

 Padge
D|--9---9---9---10---|
A|----7---7---7---7--|
F|-------------------| Repeat 9 times
C|-------------------|
G|-------------------|
C|-------------------|

[Chorus]
 Matt (Rhtythm)
D|---------------------------------------------------------------|
A|---------------------------------------------------------------|
F|---------------------------------------------------------------|
C|-------------0-------------2-------------4-------------2-2-2---|
G|---0-0--0--0-0---2-2--2--2-2---4-4--4--4-4---4-4--4--4-2-2-2---|
C|---0-0--0--0-0---2-2--2--2-2---4-4--4--4-4---4-4--4--4-2-2-2---|
    * *  *  *     * *  *  *     * *  *  *     * *  *  *

D|--------------------------------------------------------------|
A|--------------------------------------------------------------|
F|--------------------------------------------------------------|
C|--------------0-------------2-------------4-------------7r-9r-|
G|----0-0--0--0-0---2-2--2--2-2---4-4--4--4-4---4-4--4--4-7r-9r-|
C|----0-0--0--0-0---2-2--2--2-2---4-4--4--4-4---4-4--4--4-7r-9r-|
     * *  *  *     * *  *  *     * *  *  *     * *  *  *

D|--------------------------------------------------------------|
A|--------------------------------------------------------------|
F|--------------------------------------------------------------|
C|--------------0-------------2-------------4-------------2-2-2-|
G|----0-0--0--0-0---2-2--2--2-2---4-4--4--4-4---4-4--4--4-2-2-2-|
C|----0-0--0--0-0---2-2--2--2-2---4-4--4--4-4---4-4--4--4-2-2-2-|
     * *  *  *     * *  *  *     * *  *  *     * *  *  *

D|-----------------------------------------------------------------------------|
A|-----------------------------------------------------------------------------|
F|-----------------------------------------------------------------------------|
C|--------------0-------------0----------------------------------4-4-4-4-4-4-4-|
G|----0-0--0--0-0---0-0--0--0-0---2--4-4-4---2--4-4-4---2--4-4-4-4-4-4-4-4-4-4-|
C|----0-0--0--0-0---0-0--0--0-0---2--4-4-4---2--4-4-4---2--4-4-4-4-4-4-4-4-4-4-|
     * *  *  *     * *  *  *     *  * * *   *  * * *   *  * * *

[Outro]
 Matt & Padge
D|---------------------------------------------------------------------------------------|
A|---------------------------------------------------------------------------------------|
F|---------------------------------------------------------------------------------------|
C|---------------0-0-0------------------2-2-2------------------0-0-0------------------0r-|
G|--0-0---0---0--0-0-0-----0-0---0---0--2-2-2-----0-0---0---0--0-0-0-----0-0---0---0--0r-|
C|--0-0---0---0--0-0-0-----0-0---0---0--2-2-2-----0-0---0---0--0-0-0-----0-0---0---0--0r-|
   * *   *   *  * * *     * *   *   *            * *   *   *  * * *     * *   *   *


************************************

| *  Palm mute
| /  Slide down
| r  Don't let ring

************************************
Suggest correction
comments
print report bad tab
8 comments total. Showing first comments.
+2 reply
Dabeastvader 134 Feb 05, 2013 04:21 AM

Awesomeeeeee \m/

+2 reply
Collyn 20 Feb 17, 2013 10:48 AM

Easy song, but freakin' catchy. good job boii

0 reply
banrnon 10 Feb 19, 2013 08:25 AM

pretty sure the intro is done with just hammer ons and pull offs on the high E string. Sounds right either way though

guest
You may want to rate the tab now too:
select rating
Wanna post a correction for this tab? Suggest correction